Blink 182

Blink 182
All The Small Things (Guitar chord)

Date: Mon, 17 Apr 2000 16:48:24 -0400
From: "Rob O'Donovan"
Subject: b/blink_182/all_the_small_things.crd

Song: All the small things
Composers: Blink 182
Tabed By: rcodonovan@hotmail.com (Rob O'donovan)

This is a great tune by blink 182,
its standard tuning enjoy


e|-----------------------------------------------------------
b|-----------------------------------------------------------
g|------------5555555---10 10-10-10-10-10-10-----------------
d|-5-3--------5555555---10 10-10-10-10-10-10--5555555--------
a|-5-3--------3333333---8-- 8- 8 -8--8--8- 8--5555555--------
e|-3-1-------------------------------------- 3333333--------

|-----------------------
|-----------------------
|-----------------------
|-3-x-x-x-33------------
|-3-x-x-x-33------------
|-1-x-x-x-11------------

That was the intro repeat this 2 times

Do this part with light palming

All the small things...
|---------------------------------------
|---------------------------------------
|----5555555-----------------------------
|----5555555--5555555--3333333-5555555---
|----3333333--5555555--3333333-5555555---
|-------------3333333--1111111-3333333---

Repeat this 4x

Say it ant so...

|-------
|-------
|----5--
|----5--

OptimusPrime

Submitted by OptimusPrime at Mon 19 Nov, 2001 10:06 am

Author: ?
Composer: ?
Publisher: ?
Language: English

Reactions

CommonCrawl [Bot]

Follow Muzikum