BAP

BAP
Do Kannas Zaubere (Guitar tab)

#
#

From: J_MORENZIN@darkness.gun.de (Jan Morenzin)
Subject: TAB: Do kanns zaubere , BAP
Date: Sat, 10 Feb 96 14:47:00 CET

probably this one is only interesting for people in and around Germany,
but it's a wonderful song by a Band named BAP from Cologne, Germany (where
actually I come from). If you got some knowledge of german
language, don't bother about the lyrics, it's written in Cologne dialect.

--
Do kanns zaubere
BAP



D Gmaj7 Em A

|-0h2-------2-----|-2---------2-----|-3---------3-----|-----------0-----|
|-------3-------0-|-------0-------0-|-------0-------0-|-0h2---3---------|
|-----2-------2---|-----------------|-----------------|-----------------|
|-0-------0-------|-----0-------0---|-----2-------2---|-----2-------2---|
|-----------------|-----------------|-----------------|-0-------0-------|
|-----------------|-3-------3-------|-0-------0-------|-----------------|

D Gmaj7 Em A

|-0h2-------2-----|-2---------2-----|-3---------3-----|-----------0-----|
|-------3-------0-|-------0-------0-|-------0-------0-|-0h2---3---------|
|-----2-------2---|-----------------|-----------------|-----------------|
|-0-------0-------|-----0-------0---|-----2-------2---|-----2-------2---|
|-----------------|-----------------|-----------------|-0-------0-------|
|-----------------|-3-------3-------|-0-------0-------|-----------------|

D A/C# C

|-5---------5-----|-5---------3-----|-3---------3-----|---3-------------|
|-------3-------3-|-------2---------|-------1-------1-|-------1---------|
|-----2-------2---|-----2-------2---|-----0-------0---|-----0-----------|
|-0---------------|-----------------|-----------------|-----------0h2---|
|-----------------|-4-------4-------|-3---------------|-3-------3-------|
|-----------------|-----------------|-----------------|-----------------|

Em/B A7 A

|-3p2-----------2-|-3p2-------------|-3p2-------0-----|-0-----------0---|
|-----3-----0-----|-----3-----0-----|-----3-----------|-0p2---2-3-------|
|-----------------|-----------------|-----------------|-----------------|
|-----2-------2---|-----2-------2---|-----2-------2---|-----2-------2---|
|-2-------2-------|-2-------2-------|-0-------0-------|-0-------0-------|
|-----------------|-----------------|-----------------|-----------------|




E wiess Blatt Papier ne Bleistift,
Jedanke bei Dir setz ich,
am Finster un h�r, wat sich
avspillt v�r d'r D�r bess ich
avr�tsch en die Zick en d'r et
Dich f�r mich nit joov un mir ming

Em/B A7 A

|-3p2-------------|-3p2-------------|-3p2-------0-----|-----------0-----|
|-----3-----0-----|-----3-----0-----|-----3-----------|-0p2---3---------|
|-----------------|-----------------|-----------------|-----------------|
|-----2-------2---|-----2-------2---|-----2-------2---|---2---2---2-----|
|-2-------2-------|-2-------2-------|-0-------0-------|-0-------0-------|
|-----------------|-----------------|-----------------|-----------------|

L��ve v�r'm Daach X op eimol v�rk�tt wie en Strof




Cmaj7 D

|-0---------0-----|-0---------0-----|-2---------2-----|-2-------3p2-----|
|-------0-------0-|-------0---------|-------3-------3-|-------3-----3---|
|-----------------|-----------------|-----2-------2---|-----2---------2-|
|-----2-------2---|-----2-------2---|-0---------------|-0---------------|
|-3---------------|-3---------------|-----------------|-----------------|
|-----------------|-----------------|-----------------|-----------------|

Do kanns zaubere wie ding Mam die Kaate l��t

Cmaj7 D

|-0---------0-----|-0---------0-----|-2---------2-----|-----------------|
|-------0-------0-|-------0-------0-|-3-----3-------3-|-3-----3---------|
|-----------------|-----------------|-2---2-------2---|-----2-----------|
|-----2-------2---|-----2-------2---|-0---------------|-0-------2p0-----|
|-3---------------|-3---------------|-----------------|-------------3-2-|
|-----------------|-----------------|-----------------|-----------------|

irjend su jet muss et sin

Am Em/B

|-----------0-----|-0---------3-----|-----------0-----|-0---------3-----|
|-----1---------1-|-------1---------|-----0---------0-|-------3-------3-|
|-----2-------2---|-----2-------2---|-----0-------0---|-----------------|
|---------2-------|---------2-------|---------2-------|-----2-------2---|
|-0---------------|-0---------------|-2---------------|-2-------2-------|
|-----------------|-----------------|-----------------|-----------------|

jede Andere h�t jesaat et ess zo sp�t d� Typ ess

C A7 A

|-----------0-----|-0---------3-----|-----3-----0-----|-----------0-----|
|-----1---------1-|-------1-------1-|---------------2-|-0h2---3---------|
|-----0-----------|-----------------|-----2-----------|-----------------|
|---------2-------|-----2-------2---|---------2-------|-----2-------2---|
|-3-----------3---|-3-------3-------|-0-----------0---|-0-------0-------|
|-----------------|-----------------|-----------------|-----------------|

f�dich n� d� Typ d� krisste wirklich nit mie hin.




Met'm R�gge zur Wand, spassend,
un jede Naach voll wor ich.
Ming bissche Verstand hassend,
total vun d'r Roll wor ich
Et schlimmste wor wie mir
als Do mich endlich rejistriert
entsetzlich klar wot dat et jetz oder nie
met �ns zwei passeet

Mensch, wor ich nerv�s, als ich
Dir alles jesaat, hektisch
un trotzdem erl�s weil Do mich
nit dreck usjelaat un Dich
f�r mich interesseet h�s
f�r all d� Stuss d� uss mir kom
f�r all d� Laber d� ich gebraach han
weil die Changs su pl�tzlich kom







--

That's it.

Greetings

Jan

---------------------------------------------------------------------
Jan Morenzin Voice: 0221 627104 eMail: j_morenzin@darkness.gun.de

## CrossPoint v3.0 R ##

OptimusPrime

Submitted by OptimusPrime at Wed 14 Nov, 2001 4:09 am

Author: ?
Composer: ?
Publisher: ?
Language: English

Reactions

CommonCrawl [Bot]

Follow Muzikum