Bad Religion

Bad Religion
Give You Nothing (Guitar tab)

Intro: Bass Intro:|--------------------|
|-----| Strum it |-----5-5-5----------|
|-----| every |-7-7-------5-5------| X ?
|--7--| so |---------------5-5-5|
|--7--| often
|--5--|
|-----|

Verse:
|---------------------------------|
|------8-8-8----------------------|
|-9-9--7-7-7--7-7-----------------|
|-9-9--5-5-5--7-7--7-7-7----------|
|-7-7---------5-5--7-7-7----------|
|------------------5-5-5----------|

Chorus
|--------------------------------------|
|-------------------8------------------|
|--55555555-4444-3--7------------------|
|--55555555-4444-3--5------------------|
|--33333333-2222-1---------------------|
|--------------------------------------|
Then go straight into the verse and play it twice, then:
|----------------------------------------|
|--------------8-------------------------|
|-9-9-9-9-9-9--7--9----------------------|
|-9-9-9-9-9-9--5--9----------------------|
|-7-7-7-7-7-7-----7----------------------|
|----------------------------------------|
"I give you me, I give you nothing"

Play everything again (exept the intro)
Bridge:
|----------------------------------------|
|----------8-8-8-8-----------------------|
|-9-9-9-9--7-7-7-7--7-7-7-7--------------|
|-9-9-9-9--5-5-5-5--7-7-7-7--7-7-7-7-----|
|-7-7-7-7-----------5-5-5-5--7-7-7-7-----|
|----------------------------5-5-5-5-----|

|-------------------|
|-------------------|
|-5------7----------|
|-5-x16--7-x16------|
|-3------5----------|
|-------------------|

then the rest is just repeating.
enjoy.
Eoin. (the irish punk)

eoin_t

Submitted by eoin_t at Sat 20 Mar, 2004 11:56 pm

Author: ?
Composer: ?
Publisher: ?
Language: English
Available on: Suffer (2018)

Reactions

CommonCrawl [Bot]

Follow Muzikum