Bad Religion

Bad Religion
Streetkid Named Desire (Bass tab)

Artist: Bad Religion
Song: Streetkid Named Desire
Album: New America
Instrument: Bass
Tuning: Standard (E,A,D,G)

Intro |repeat four times|
G|---------------------|--------------------|
D|---------------------|--------------------|
A|------3333------1110-|------3333-11111111-|
E|-1111------3333------|-1111---------------|

Verse
G|------------------------------------------------|
D|------------------------------------------------|
A|-----8-8-8-8-----8-8-8-8----10-10-10-10---8---8-|
E|-8-8---------8-8---------8-8------------8---8---|

2nd Half
G|-------------------------------------------|
D|-------------------------------------------|
A|-3333-2222-0000--------------------2---2-3-|
E|----------------3333-11111111-3333---3-----|

Prechorus
G|---------------|--------------------|----------|-------|
D|---------------|--------------------|----------|-------|
A|------8888-10>-|------8888-10>------|-10-8-7-5-|-------|
E|-8888----------|-8888----------8888-|----------|-5~-3~-|

Chorus
G|---------------------|-------------------|
D|---------------------|-------8-----------|
A|------8888------8888-|---------8---------|
E|-8888------6666------|-8-8-------66-8888-|

Intro

Bridge
G|-------|-------------------------|
D|-------|---------------00-22-3-5-|
A|-5~----|------------33-----------|
E|----3~-|-5>-3>-1>-3>-------------|

G|----------------------|---------------------|
D|------3333-5555-3-2-0-|-----3333-5555-3-2-0-|
A|-3333-----------------|-3-3-----------------|
E|----------------------|---------------------|

Chorus

Ending
G|------------------|-------------|
D|-----8------------|-------------|
A|-------8-----8888-|-------------|
E|-8-8-----6-6------|-6-6-888-6-8-|

OptimusPrime

Submitted by OptimusPrime at Thu 14 Aug, 2003 4:01 pm

Author: ?
Composer: ?
Publisher: ?
Language: English

Reactions

CommonCrawl [Bot]

Follow Muzikum