Bad Religion

Bad Religion
Sorrow Ver 2 (Guitar tab)

BAD RELIGION - SORROW

Tabbed out by Josh Spohr I also tabbed some of guitar 2


Intro (palm mute)
e |---(12)-------------------------------------------------------------------|
a |---(12)-------------------------------------------------------------------|
d |--------------------------------------------------------------------------|
g |--------------------------------------------------------------------------|
b |-----------------------3-3-3-3-5-5-5-5------------------------------------|
e |-------------0-0-0-0---------------------3-3-3-3-3-3-3-3-3-3-3-3-3-3-3-3--|

e |--------------------------------------------------------------------------|
a |--------------------------------------------------------------------------|
d |--------------------------------------------------------------------------|
g |--------------------------------------------------------------------------|
b |-------------3-3-3-3-7-7-7-7-5-5-5-5-5-5-5-5-5-5-5-5-5-5-5-5--------------|
e |---3-3-3-3----------------------------------------------------------------|

e |--------------------------------------------------------------------------|
a |--------------------------------------------------------------------------|
d |--------------------------------------------------------------------------|
g |--------------------------------------------------------------------------|
b |-------------3-3-3-3-5-5-5-5-7-7-7-7-7-7-7-7-7-7-7-7-7-7-7-7--------------|
e |---3-3-3-3----------------------------------------------------------------|

e |--------------------------------------------------------------------------|
a |--------------------------------------------------------------------------|
d |--------------------------------------------------------------------------|
g |--------------------------------------------------------------------------|
b |-------------3-3-3-3-5-5-5-5-----------5-5-5-5-5-5-5-5--------------------|
e |---0-0-0-0---------------------3-3-3-3-3-3-3-3-3-3-3-3---3-2--------------|
^ let off palm mute here
Verse
e |----------------------------------5-------5-------5-------5---------------|
a |----------------------------------5-------5-------5-------5---------------|
d |--------------------------------------------------------------------------|
g |------------5-5-5-5-7-7-7-7-----------------------------------------------|
b |---2-2-2-2--3-3-3-3-5-5-5-5-5-5-5-5-5-5-5-5-5-5-5-5-5-5-5-5---------------|
e |---0-0-0-0------------------3-3-3-3-3-3-3-3-3-3-3-3-3-3-3-3---------------|

e |----------------------------------7-------7-------7-------7---------------|
a |----------------------------------7-------7-------7-------7---------------|
d |--------------------------------------------------------------------------|
g |------------5-5-5-5-9-9-9-9-7-7-7-7-7-7-7-7-7-7-7-7-7-7-7-7---------------|
b |---5-5-5-5--3-3-3-3-7-7-7-7-5-5-5-5-5-5-5-5-5-5-5-5-5-5-5-5---------------|
e |---3-3-3-3----------------------------------------------------------------|

e |----------------------------------9-------9-------9-------9---------------|
a |----------------------------------9-------9-------9-------9---------------|
d |--------------------------------------------------------------------------|
g |------------5-5-5-5-7-7-7-7-9-9-9-9-9-9-9-9-9-9-9-9-9-9-9-9---------------|
b |---5-5-5-5--3-3-3-3-5-5-5-5-7-7-7-7-7-7-7-7-7-7-7-7-7-7-7-7---------------|
e |---3-3-3-3----------------------------------------------------------------|

e |----------------------------------5---------5-----------------------------|
a |----------------------------------5---------5-----------------------------|
d |--------------------------------------------------------------------------|
g |-----------5-5-5-5-7-7-7-7------------------------------------------------|
b |---2-2-2-2-3-3-3-3-5-5-5-5-5-5-5-5-5-5-5-5-5-5-5-5------------------------|
e |---0-0-0-0-----------------3-3-3-3-3-3-3-3-3-3-3-3---3-2------------------|

Chorus
e |--------------------------------------------------------------------------|
a |--------------------------------------------------------------------------|
d |--------------------------------------------------------------------------|
g |-----------5-5-5-5--------------------------------------------------------|
b |---2-2-2-2-3-3-3-3-5-5-5-5---5--------------------------------------------|
e |---0-0-0-0---------3-3-3-3------3-----------------------------------------|

e |--------------------------------------------------------------------------|
a |--------------------------------------------------------------------------|
d |--------------------------------------------------------------------------|
g |-----------5-5-5-5--------------------------------------------------------|
b |---2-2-2-2-3-3-3-3-5-5-5-5---5--------------------------------------------|
e |---0-0-0-0---------3-3-3-3------3-----------------------------------------|


e |--------------------------------------------------------------------------|
a |--------------------------------------------------------------------------|
d |--------------------------------------------------------------------------|
g |-----------5-5-5-5--------------------------------------------------------|
b |---2-2-2-2-3-3-3-3-5-5-5-5---5--------------------------------------------|
e |---0-0-0-0---------3-3-3-3------3-----------------------------------------|

e |--------------------------------------------------------------------------|
a |--------------------------------------------------------------------------|
d |--------------------------------------------------------------------------|
g |-----------5-5-5-5---------5-5-5-5-7-7-7-7-7-7-7-7-7-7-7-7-7-7-7-7--------|
b |---2-2-2-2-3-3-3-3-5-5-5-5-3-3-3-3-5-5-5-5-5-5-5-5-5-5-5-5-5-5-5-5--------|
e |---0-0-0-0---------3-3-3-3------------------------------------------------|

Bridge
e |-----------------------------|
a |-----------------------------|
d |-----------------------------|
g |-----------------------------|
b |---5-5-5-5-5-5-5-5-5---------|
e |---3-3-3-3-3-3-3-3-3---------|

Solo
e |-----------------------------------------------------------------|
a |--13b--13b-------------------------------------------------------|
d |--12b--12b--14--12--12h14p12----------12--14--12-----------------|
g |------------------------------12--14-------------------12--14----|
b |---------------------------------------------------14------------|
e |-----------------------------------------------------------------|

e |-----------------------------------------------------------------|
a |-----------------------------------------------------------------|
d |---12------------------------------------------------------------|
g |--------14--12p14--12--12p14--12--12p14--12p14--12------12--14---|
b |----------------------------------------------------14-----------|
e |-----------------------------------------------------------------|

e |-----------------------------------------------------------------|
a |----------------------------------------13--15--13--12--13--12---|
d |---12------12--14--12---12--14--14--14---------------------------|
g |-------14--------------------------------------------------------|
b |-----------------------------------------------------------------|
e |-----------------------------------------------------------------|

e |---------------------------------12---------------------------------------|
a |-----------------------------12------12-----------------------------------|
d |---14--12--14--12--14b---14--------------14--12----------14b--12--14--12--|
g |-------------------------------------------------14--12-------------------|
b |--------------------------------------------------------------------------|
e |--------------------------------------------------------------------------|

OptimusPrime

Submitted by OptimusPrime at Thu 14 Aug, 2003 4:01 pm

Author: ?
Composer: ?
Publisher: ?
Language: English

Reactions

CommonCrawl [Bot]

Follow Muzikum