Bad Religion

Bad Religion
Sorrow Ver 2 (Bass tab)

Bad Religion - Sorrow
----------------------------------------
intro
G|-------------------------------------------
D|-------------------------------------------
A|---3-5-------------------------------3---5-
E|-0-----3---------------------------3---0---
"father can you hear me....."

G|----------------------------------------------------------|
D|----------------------------------------------------------|
A|----3-5---7-----------------------------------------------|
E|-3-----------------------------------------------33333322-|
"... and all the sorrow in this world"

verse
G|--------------------------------------------------------------------------|
D|---------------------------------------------------------------------0000-|
A|--------3333333-555555---------------------------------333333-777777------|
E|-000000----------------3333333-----------------3333333--------------------|
"let me take you to the hurting ground...."

G|-----------------------------------------------------
D|-----------------------------------------------------
A|---------333333-555555-777777----------33333-555555--
E|-3333333-----------------------0000000---------------
"...between a prideful father

G|-----------------------|
D|-----------------------|
A|-----------------------|
E|------------3-33333322-|
...and his son"


chorus
G|------------------------------------|
D|------------------------------------|
A|------------------------33333-------|
E|-000000----------------------33333--|
"and therre will be...sorrow

this is it......!!! the guitar solo: just play the verse!!!
this song's intro is smoothly played...not to fast, just listen.

OptimusPrime

Submitted by OptimusPrime at Thu 14 Aug, 2003 4:01 pm

Author: ?
Composer: ?
Publisher: ?
Language: English

Reactions

CommonCrawl [Bot]

Follow Muzikum