Bad Religion

Bad Religion
Shades Of Truth Ver 2 (Bass tab)

Intro
G|-------------------------------------------------------------------
D|-------------------------------------------------------------------
A|---0-0-0-0-0-0-3-3-------------0-0-------------0-0-----------------
E|-3-----------------1-1-1-1-1-1-----3-3-3-3-3-3-----0-0-0-0-0-0-----

Verse
G|--------------------------------------------------------------------
D|--------------------------------------------------------------------
A|-----0-0-0-0-0-0-3-3-------------0-0-------------0-0----------------
E|-3-3-----------------1-1-1-1-1-1-----3-3-3-3-3-3-----0-0-0-0-0-0----

Chorus
G|-------------------------------------
D|-------------------------------------
A|-0-----------------------------------
E|-----1-1---3-3-3-3-3-3-3-3-----------

Variant
G|-------------------------------------
D|-------------------------------------
A|-0-0---------------------------------
E|------1-1--3-3-3-3-3-3-3-3-----------

End
G|------------------------------
D|------------------------------
A|-0----------------------------
E|----1-1--0--------------------

OptimusPrime

Submitted by OptimusPrime at Thu 14 Aug, 2003 4:01 pm

Author: ?
Composer: ?
Publisher: ?

Reactions

CommonCrawl [Bot]

Follow Muzikum