Bad Religion

Bad Religion
Out Of Hand (Bass tab)

Artist: Bad Religion
Song: Out Of Hand
Album: Short Music For Short People (Epitaph Records)
Tabbed by: Hampster Wheel (Il0v0Il@aol.com)

With lyrical reference:

Take your *** anymore
G|--------------------------------------------------------------------
D|-2-2-2-2-2-2-2-2----------------------------------------------------
A|-----------------3-3-3-3-3-3-3-3-5-5-5-5-5-5-5-5--------------------
E|-------------------------------------------------3-3-3-3-2-2-1-1----

Life is way too short
G|--------------------------------------------------------------------
D|-------------------------------------------------5-5-5-7-4-4--------
A|-----------------3-3-3-3-3-3-3-3-5-5-5-5-5-5-5-5-------------5-5----
E|-0-0-0-0-0-0-0-0----------------------------------------------------

The turning of the hourglass It beckons me like gravity
G|--------------------------------------------------------------------
D|--------------------------------------------------------------------
A|-------------------------5-5-5-5-------------------------5-5-5-5----
E|-0-0-0-0-0-0-0-0-3-3-3-3---------0-0-0-0-0-0-0-0-3-3-3-3------------

And you got what you wanted without force or repromand
G|--------------------------------------------------------------------
D|--------------------------------------------------------------------
A|-------------------------5-5-5-5-3-3-3-3-3-3-3-3-5-5-5-5-5-5-5-5----
E|-0-0-0-0-0-0-0-0-3-3-3-3--------------------------------------------

The seconds are all running out, this burden's out of haaand
G|--------------------------------------------------------------------
D|--------------------------------------------------------------------
A|-3-3-3-3-3-3-3-3-2-2-2-2-2-2-2-2---------3-3-3-3---------5-5-5-5----
E|---------------------------------0-0-0-0---------0-0-0-0------------


G|--------------------------------------------------------------------
D|--------------------------------------------------------------------
A|---------3-3-3-3---------5-5-5-5-7-7---7-7-7---7---7---7-7---5---7--
E|-0-0-0-0---------0-0-0-0--------------------------------------------

Hmm, he uses some syncopation, and that's it. Bam!

OptimusPrime

Submitted by OptimusPrime at Thu 14 Aug, 2003 4:01 pm

Author: ?
Composer: ?
Publisher: ?
Language: English

Reactions

CommonCrawl [Bot]

Follow Muzikum