Bad Religion

Bad Religion
New America Ver 2 (Guitar tab)

Bad Religion - New America

Intro:

guit1)
e------------------------------------------------------------------------
B------------------------------------------------------------------------
G--10-10-10-10-10--8-------------8--10-10-10-10-10--8-------------8-8-8--
D--10-10-10-10-10--8--8-8-8-8-8--8--10-10-10-10-10--8--8-8-8-8-8--8-8-8--x2
A--8--8--8--8--8---6--8-8-8-8-8--6--8--8--8--8--8---6--8-8-8-8-8--6-6-6--
E---------------------6-6-6-6-6------------------------6-6-6-6-6---------
guit2)
e--5-5-5-5--6--5--6----6-6-6-6--8--6--8--
B--6-6-6-6--6--6--6----6-6-6-6--6--6--6--x4
G----------------------------------------

Verse:

guit1)
e-------------------------------------------------------------------------
B-------------------------------------------------------------------------
G-------------------------------------------------------------------------
D-------------------------------------------------------------------------
A--3-3-3-3-3-3-3-3-3-3-3-3-3-3/10-10-10-10-10-10-10-10-10-10-10-10-10-10--
E--1-1-1-1-1-1-1-1-1-1-1-1-1-1/8--8--8--8--8--8--8--8--8--8--8--8--8--8---
Do you know the cost of future misery?
Have you lost your sense of sustainability?
e-----------------------------------------------
B--3--1-1----3----1---1--------1-5----5-5-5--5--
G--3--2-2----3----2---2----0---2-5----5-5-5--5--
D--3--3-3----3----3---3----0---3-5----5-5-5--5--
A-----------------------------------------------

A# F* C
We are just a step away from realizing what we strive to be
A# F* C
But we've got to break out from this insulated blind and lame senility

Chorus:
A# F C
Wake up the new america Wo-oh! wo-oh!
A# F C
Transcend the mass hysteria Wo-oh! wo-oh!
A# F C
Change is the thing you're wary of Wo-oh! wo-oh!
A# F C
We need a new america Wo-oh! wo-oh!

guit2)
e-1-1-1-1-1-1-1-1--1-1-1-1-1-1-1-1--3-3-3-3-3-3-3-3-3-3-3-3-3-3-3-3---
B-3-3-3-3-3-3-3-3--1-1-1-1-1-1-1-1--5-5-5-5-5-5-5-5-5-3-3-3-5-3-5-3---
G---------------------------------------------------------------------

(Intro)

e-------------------------------------------------------------------------
B-------------------------------------------------------------------------
G-------------------------------------------------------------------------
D-------------------------------------------------------------------------
A--3-3-3-3-3-3-3-3-3-3-3-3-3-3/10-10-10-10-10-10-10-10-10-10-10-10-10-10--
E--1-1-1-1-1-1-1-1-1-1-1-1-1-1/8--8--8--8--8--8--8--8--8--8--8--8--8--8---
Laurels, human triumph, bestowments from the past
Victories don't mean a thing if they don't last
e-----------------------------------------------
B--3--1-1----3----1---1--------1-5----5-5-5--5--
G--3--2-2----3----2---2----0---2-5----5-5-5--5--
D--3--3-3----3----3---3----0---3-5----5-5-5--5--
A-----------------------------------------------

A# F* C
We are just marching toward extinction with blinders on our eyes
A# F* C
Jeopardizing everything we've learned and come to realize you call that wise?

A# F C
Open your eyes america Wo-oh! wo-oh!
A# F C
See through the lies they tell to us Wo-oh! wo-oh!
A# F C
Confront the fears that worry us Wo-oh! wo-oh!
A# F C
We need a new america Wo-oh! wo-oh!

(A# F)
We don't have to be afraid to re-invent we've got to start to build,
Progress, and implement for when we take our fill,
And never pay the price we only build ourselves a fleeting,
false paradise

Solo:
e--6--5-5----5h6---6-6-5-------------8~-
B--6---------------------6---5---8------
G--------------------------5------------
G---------------------------------------
A---------------------------------------
E---------------------------------------

e--6--5-5-3---5-6-5-------12------13------15------13------12~--
B--6--------6-------6--13------13------13------13------13------
G--------------------------------------------------------------
D--------------------------------------------------------------
A--------------------------------------------------------------
E--------------------------------------------------------------

A# F* C
you can live in staunch denial and mark me as your enemy
but I'm just a voice among the throng who want a brighter destiny
they say with me

A# F C
We are the new america Wo-oh! wo-ho!
A# F C
this is the new america? Wo-oh! wo-oh!
A# F C
We are the new america Wo-oh! wo-ho!
A# F C
this is the new america? Wo-oh! wo-oh!

End:
e--------------------------------------------------
B--------------------------------------------------
G--10-10-10-10-10--8-------------8-8-8-10------10--
D--10-10-10-10-10--8--8-8-8-8-8--8-8-8-10------10--
A--8--8--8--8--8---6--8-8-8-8-8--6-6-6-8-------8---
E---------------------6-6-6-6-6--------------------

e--5-5-5-5--6--5--6----6-6-6-6--8--6--8--------5--
B--6-6-6-6--6--6--6----6-6-6-6--6--6--6--------6--
G-------------------------------------------------
D-------------------------------------------------
A-------------------------------------------------
E-------------------------------------------------

thadeumb@hotmail.com

OptimusPrime

Submitted by OptimusPrime at Thu 14 Aug, 2003 4:01 pm

Author: ?
Composer: ?
Publisher: ?
Language: English

Reactions

CommonCrawl [Bot]

Follow Muzikum