Bad Religion

Bad Religion
Individuals Ver 2 (Bass tab)

song: "INDIVIDUALS"
band: Bad Religion
album: "Stranger Than Fiction"
tabbed by: Jay


Opening
G:--------------------------------------|
D:--------------------------------------|
A:--4-4-444--00-77-2--4-4-444--00-77-2--|
E:--------------------------------------|

G:--------------------------------------|
D:--------------------------------------|
A:--4-4-444--0-00-00--2-22-22--2-2------|
E:---------------------------------4-4--|


Verse
G:--------------------------------------|
D:--------------------------------------|
A:--4-4-444--00-77-2--4-4-444--00-77-2--|
E:--------------------------------------|

G:--------------------------------------|
D:--------------------------------------|
A:--4-4-444---------4-4-444-------------|
E:----------4-44-44---------4-44-44-----|


Chorus
G:--------------------------------------|
D:--------------------------------------|
A:--------------------444---------------|
E:--5-5-555--4-44-44------000-222-444---|

G:--------------------------------------|
D:--------------------------------------|
A:--------------------------------------|
E:--5-5-555--4--44-44-------------------|


Bridge
G:--------------------------------------|
D:--------------------------------------|
A:--------------------2-2-222--2-22-22--|
E:--5-5-555--4-44-44--------------------|

G:--------------------------------------|
D:--------------------------------------|
A:--------------------------------------|
E:--5-5-555--4-44-44--------------------|

OptimusPrime

Submitted by OptimusPrime at Thu 14 Aug, 2003 4:01 pm

Author: ?
Composer: ?
Publisher: ?
Language: English

Reactions

CommonCrawl [Bot]

Follow Muzikum