Bad Religion

Bad Religion
Epiphany Ver 2 (Bass tab)

Intro(play this for the verse too)
G-10-10-10-0--0--0-0-7-8-8-6-6-6
D--0--0--0-10-10-10--8-8-8-7-7-7
A-------------------
E-------------------

If you can't play the above intro,play this...
G-------------------------------------
D-------------------------------------
A-55555555----------------------------
E----------555555555-66666666-55555555

Fill 1
G-------------------
D-------------------
A-------------------
E�7�7-5�5-3�3-2-----

Bridge �We arrive at this place��(play this slowly)
G----------------------------------
D----------------------------------
A----------------------------------
E-3-2-3-4-5-6-7-8-9-12-------------

Chorus
G-------------------------------------
D-------------------------------------
A�55555-------------7-7--------7-8-7-5
E-----5-5-5�66666--------88888--------

2nd Chorus
G------------------------
D------------------------
A�55555-------55555-----------
E-------55555--------66666------

Bridge
G----------------------------------------------------------------------
D-------7-6-5-----------------------------------5-6-7----9-9-9-9-------
A-5-5----------7-6-5-------------------5-6-7---------------------------
E-----------------------7-6-5---5-6-7----------------------------------
Bridge 2 �It�s oh so relative��
G---------------------------------------------------------------------------
D-3-1-----------------------------------------------------------------------
A------3-1--------------5-7--------7-9-----------1212121212--10-9-7-5---5---
E------------3-1---5-7--------7-9-------10-12------------------5------------

Bridge 3 (Guitar solo)
G----------------------------------------------------------------------------
D----------------------------------------------------------------------------
A-55555-----55555-----555555-----55555-----5�5-3-5�5-3-5�7-5-7�7-5-7�9-7-9�9-7-9�12--
E------55555------66666-----55555-----66666-------------------------------------------

----------------------
----------------------
--10-12/15>-----------
----------------------

Order:
Intro-6 times
Fill-1 time
Bridge-1 time
Chorus-2 times
2nd Chorus-2 times
Intro-4 times
Fill-1 time
Bridge-1 time
Chorus-2 times
2nd Chorus-4 times
Bridge-2 times
Bridge 2-1 time
Bridge 3-1 time
Chorus-2 times
2nd Chorus-play until the end of the song

OptimusPrime

Submitted by OptimusPrime at Thu 14 Aug, 2003 4:01 pm

Author: ?
Composer: ?
Publisher: ?
Language: English

Reactions

CommonCrawl [Bot]

Follow Muzikum