Bad Religion

Bad Religion
Broken (Bass tab)

Bad Religion-Broken
CD-process of belief
PLEASE RATE THIS TAB!

>-play a lot
This song starts with the chorus.

Intro
G--------------------------------------------------------
D--------------------------------------------------------
A---------------5>-------------5>----------------5>------
E-5>--3>--1>-------5>--3>--1>-------5>--3>--1>-------5>--

Verse
G-----------------------------------
D-----------------------------------
A-----------------------------5>----
E-5>--3>--5>--0>--5>--3>--1>--------

Break
G-----------------------------13-------------------------------
D------------------13-15-13------13-----------------------------
A---------13-15-----------------------15-13---------------------
E-5>/15----------------------------------------15-12-5>-3>/5>---

OptimusPrime

Submitted by OptimusPrime at Thu 14 Aug, 2003 4:01 pm

Author: ?
Composer: ?
Publisher: ?
Language: English

Reactions

CommonCrawl [Bot]

Follow Muzikum