Bad Religion

Bad Religion
Better Off Dead (Bass tab)

INTRO
G|------------------------------------------------------------------|
D|------------------------------------------------------------------|
A|--------------------------------------------22222-11--------------|
E|--4-4--4-0-0--0-4-4--4-2-2--2-4-4--4-0-0--0-----------------------|


G|------------------------------------------------------------------|
D|------------------------------------------------------------------|
A|-------------------------------------------------/6-6-6-4---------|
E|--4-4--4-0-0--0-4-4--4-2-2--2-4-4--4-0-0--0---------------6-------|
-1- (1 down tone)
VERSE
G|------------------------------------------------------------------|
D|------------------------------------------------------------------|
A|--------------------------------------------2-2-2-----------------|
E|--4-4--4-0-0--0-4-4--4-2-2--2-4-4--4-0-0--0-------2-2-2-----------|


G|------------------------------------------------------------------|
D|------------------------------------------------------------------|
A|------------------------------------------------------------------|
E|--4-4--4-0-0--0-4-4--4-2-2--2-4-4--4-0-0--0--2-2-2----------------|

BRIDGE & FINAL PART
G|--------------------------------------------------------------------------|
D|--------------------------------------------------------------------------|
A|----------------2-2--2-1-1--1-----------------------------2-2-2-------2---|
E|--0-0--0-2-2--2---------------4-4--4-2-2--2-0-0--0-2-2--2-------2-2-2-----|

CHORUS 1
G]--------4--------------------------------------4-------------------------------------------
D]----------6-4----------------------4-4-2---------6-4----------------------4----------------
A]--------------6-7-6-4-6-0-2--2-4-6-------4-2---------6-7-6-4-6-0-2--2-4-6---6--6-6-4h6-4---
E]--4-4-4--------------------------------------4-------------------------------------------6-

CHORUS 2
G]--------4-------------------------------------
D]----------6-4---------------------------------
A]--------------6-7-6-4-6-0-2--------------2----
E]--4-4-4---------------------0-1-2-2--2-4------

OptimusPrime

Submitted by OptimusPrime at Thu 14 Aug, 2003 4:01 pm

Author: ?
Composer: ?
Publisher: ?

Reactions

CommonCrawl [Bot]

Follow Muzikum