Bad Religion

Bad Religion
21st Century Digital Boy Ver 3 (Guitar tab)

Bad religion-21st century digital boy

INTRO
E|--------------------------------------
B|--------------------------------------
G|--7-7-7-7-7-7-7-7-7-7-7-7-7-7-7-7-----
D|--7-7-7-7-7-7-7-7-7-7-7-7-7-7-7-7-----
A|--5-5-5-5-5-5-5-5-5-5-5-5-5-5-5-5-----
E|--------------------------------------



VERSE X2
E|--------------------------------------
B|--------------------------------------
G|--7-7---------------------------------
D|--7-7----3-3----5-5----8-8--7-7-------X2
A|--5-5----3-3----3-3----8-8--5-5-------
E|---------1-1----3-3----6-6--5-5-------

E|--------------------------------------
B|--------------------------------------
G|--7-7-7-7-----------5-5-5-5-----------
D|--7-7-7-7--3-3-3-3--5-5-5-5--5-5-5-5--
A|--5-5-5-5--3-3-3-3--3-3-3-3--5-5-5-5--
E|-----------1-1-1-1-----------3-3-3-3--

E|--------------------------------------
B|--------------------------------------
G|--7-7---------------------------------
D|--7-7----3-3-3----5----7--------------
A|--5-5----3-3-3----5----7--------------
E|---------1-1-1----3----5--------------

LAST TIME ONLY
E|--------------------------------------
B|--------------------------------------
G|--------------------------------------
D|--7-7-7-7-7-7-7-7---------------------
A|--7-7-7-7-7-7-7-7---------------------
E|--5-5-5-5-5-5-5-5---------------------


CHORUS
E|--------------------------------------
B|--------------------------------------
G|--7-7-7-7--3-3-3-3-----------5-5-5-5--
D|--7-7-7-7--3-3-3-3--3-3-3-3--5-5-5-5--X2
A|--5-5-5-5--1-1-1-1--3-3-3-3--3-3-3-3--
E|--------------------1-1-1-1-----------

E|--------------------------------------
B|--------------------------------------
G|--7-7-7-7--3-3-3-3--------------------
D|--7-7-7-7--3-3-3-3--3-3-3-3--5-5-5-5--X2
A|--5-5-5-5--1-1-1-1--3-3-3-3--5-5-5-5--
E|--------------------1-1-1-1--3-3-3-3--

E|--------------------------------------
B|--------------------------------------
G|--7-7-7-7-7-7-7-7-7-7-7-7-7-7-7-7-----
D|--7-7-7-7-7-7-7-7-7-7-7-7-7-7-7-7-----
A|--5-5-5-5-5-5-5-5-5-5-5-5-5-5-5-5-----
E|--------------------------------------

BRIDGE

E|--------------------------------------
B|--------------------------------------
G|--5-5-5-5-5-5-5-5-5-5-5-5-5-5-5-5-----
D|--5-5-5-5-5-5-5-5-5-5-5-5-5-5-5-5-----
A|--3-3-3-3-3-3-3-3-3-3-3-3-3-3-3-3-----
E|--------------------------------------

E|--------------------------------------
B|--------------------------------------
G|--------------------------------------
D|--5-5-5-5-5-5-5-5-5-5-5-5-5-5-5-5-----
A|--5-5-5-5-5-5-5-5-5-5-5-5-5-5-5-5-----
E|--3-3-3-3-3-3-3-3-3-3-3-3-3-3-3-3-----

E|--------------------------------------
B|--------------------------------------
G|--------------------------------------
D|--8-8-8-8-8-8-8-8--3-3-3-3-3-3-3-3----
A|--8-8-8-8-8-8-8-8--3-3-3-3-3-3-3-3----
E|--6-6-6-6-6-6-6-6--1-1-1-1-1-1-1-1----

E|--------------------------------------
B|--------------------------------------
G|--------------------------------------
D|--7-7-7-7-7-7-7-7-7-7-7-7-7-7-7-7-----
A|--7-7-7-7-7-7-7-7-7-7-7-7-7-7-7-7-----
E|--5-5-5-5-5-5-5-5-5-5-5-5-5-5-5-5-----


Lead guitar: 1 FRET HIGHER
---------------------------------------------------------------------------
-12b14-12b14-12b14------------9--------------------------------------------
-------------------11b13r11-----11b13-11b13r11b9----9----------------------
----------------------------9--------------------11------------------------
---------------------------------------------------------------------------
---------------------------------------------------------------------------


-------12b14-14b16-14b16r14p12----12---------------------------------------
-12b14-------------------------14----12------------------------------------
----------------------------------------11b13-11b13br11p9----9-------------
----------------------------------------------------------11---11p9-11-----
---------------------------------------------------------------------------

OptimusPrime

Submitted by OptimusPrime at Thu 14 Aug, 2003 4:01 pm

Author: ?
Composer: ?
Publisher: ?

Reactions

CommonCrawl [Bot]

Follow Muzikum