Bad Religion

Bad Religion
Yesterday (Bass tab)

artist: bad religion
song: yesterday
here's really only two basic parts to the song played over and over again,
but it's still a damn good one.

Part 1:
"Run!, but don't be scared to look behind!. ."
G:--------------------------------------------------------
D:--------------------------------------------------------
A:---------6-6-5----------------------------------------
E:-8-6-8--------6-6-6-6-6-6-6----------------------

Part 2:
"The end is almost here!, the sky the air. ."
G:-----------------------------------
D:-----------------------------------
A:-----6------------6-5-3------------
E:-4-4---6-6-0--4-4--------6-0-------

G:---------------------------------------------
D:---------------------------------------------
A:------6--------------------------------------
E:-4-4--6-6-0--4-4-4-4-4-4-4-3-3-3-3-3-3-3-6---

OptimusPrime

Submitted by OptimusPrime at Sun 01 Dec, 2002 8:50 am

Author: ?
Composer: ?
Publisher: ?
Language: English

Reactions

CommonCrawl [Bot]

Follow Muzikum