Bad Religion

Bad Religion
Punk Rock Song Ver 2 (Guitar tab)

#--------------------------------Guitar Tab------------------------------------#
# Bad Religion - Punk Rock Song #
# Tabbed By XaViMei #
# XaViMei@hotmail.com #


Bad Religion - Punk Rock song (TaB By XaViMei)

(intro)
e:---------------------------|------------------------------------------| (x2)!!!
B:---------------------------|------------------------------------------|
G:----6--6--6/9--9--9--9--9--|------------------------------------------|
D:----6--6--6/9--9--9--9--9--|--9--9--9/6--6--6--6----------------------|
A:----4--4--4/7--7--7--7--7--|--9--9--9/6--6--6--6----------------------|
E:---------------------------|--7--7--7/4--4--4--4----------------------|

(verse) have you been...
e:---------------------------|------------------------------------------|
B:---------------------------|------------------------------------------|
G:----6--6--6/9--9--9--9--9--|----------11-11-11-11-11------------------|
D:----6--6--6/9--9--9--9--9--|--9--9--9/11-11-11-11-11------------------|
A:----4--4--4/7--7--7--7--7--|--9--9--9/9--9--9--9--9-------------------|
E:---------------------------|--7--7--7---------------------------------|

(verse) there's a hundred...
e:---------------------------|------------------------------------------|
B:---------------------------|------------------------------------------|
G:----6--6--6/9--9--9--9--9--|------------------------------------------|
D:----6--6--6/9--9--9--9--9--|--9--9--9/6--6--6--6----------------------|
A:----4--4--4/7--7--7--7--7--|--9--9--9/6--6--6--6----------------------|
E:---------------------------|--7--7--7/4--4--4--4----------------------|

(bridge) and the figures don't...
e:----------------------------------|-----------------------------------|
B:----------------------------------|-----------------------------------|
G:----6--6--6---------9--9--9-------|---------------------9--9--9-------|
D:----6--6--6-(etc)---9--9--9-(etc)-|----9--9--9----------9--9--9-(etc)-|
A:----4--4--4---------7--7--7-------|----9--9--9-(etc)----7--7--7-------|
E:----------------------------------|----7--7--7------------------------|

(verse)

(bridge)

(chorus)

OptimusPrime

Submitted by OptimusPrime at Sun 01 Dec, 2002 8:50 am

Author: ?
Composer: ?
Publisher: ?
Language: English

Reactions

CommonCrawl [Bot]

Follow Muzikum