Bad Religion

Bad Religion
My Defence (Guitar tab)

Author/Artist: Bad Religion
Title: The Defense
Album: The Process Of Belief
Transcribed by: Lee Newsome
Email: I_am_going_to_conquer_the_world@hotmail.com

I'm a huge BR fan and just got their new album so I decided to tab my fave song from it,
this is prolly wrong but its just a guide :P only the rhythm as well, no way i doin the Lead lol

Standard Tuning

(intro)
|----------------------------------------------------
|---------------3------------------------------------
|----4----0h2---------5--4---------------------------
|----------------------------------------------------
|----------------------------------------------------
|----------------------------------------------------



(verse/bridge)
|----------------------------------------------------
|----------------------------------------------------
|----------------------------------------------------
|----9--10---9--10---9--10---9--10--12--10-----------
|----9--10---9--10---9--10---9--10--12--10-----------
|----7---8---7---8---7---8---7---8--10---8-----------



(chorus)
no peace, no friends...
|----------------------------------------------------
|----------------------------------------------------
|----9-------7---------------------------------------
|----9-------7-------7------4---5--------------------
|----7-------5-------7------4---5--------------------

OptimusPrime

Submitted by OptimusPrime at Sun 01 Dec, 2002 8:49 am

Author: ?
Composer: ?
Publisher: ?
Language: English

Reactions

CommonCrawl [Bot]

Follow Muzikum