Bad Religion

Bad Religion
Incomplete (Guitar tab)

#
From: syk@nyongwa.montreal.qc.ca (Bruno Lamoureux)
Subject: TAB: Incomplete by Bad Religion

Title: Incomplete
Group: Bad Religion
Album: Stranger than Fiction
Wrote by: Bad Religion
Transcribe by: Bruno Lamoureux
----------------------------------------------------------------------
I just write the chord, figure out the rhytm by yourself, it easy

----------------------------------------------------------------------

rhytm A
|------------------------------------------------------------------------
|--8--6--------6---8--6--9-----------------------------------------------
|--8--6--5--8--6---8--6--8--4-6-4-6-8-6----------------------------------
|--8--6--6--9--6---8--6--6--4-6-4-6-8-6----------------------------------
|--6--4--6--9--4---6--4--6--2-4-2-4-6-4----------------------------------
|--------4--7------------------------------------------------------------



Father father look at your little monster
play rhytm A
|------------------------------------------------------------------------
|------------------------------------------------------------------------
|------------------------------------------------------------------------
|------------------------------------------------------------------------
|------------------------------------------------------------------------
|------------------------------------------------------------------------



I'm a heroe I'm a zero I'm the ????? the worst joke in history

|------------------------------------------------------------------------
|------------------------------------------------------------------------
|------------------------------------------------------------------------
|------------------------------------------------------------------------
|------------------------------------------------------------------------
|------------------------------------------------------------------------



I'm a lock without of key, a sear with no tore

|------------------------------------------------------------------------
|--8---6-----------------------------------------------------------------
|--8---6----5----8-------------------------------------------------------
|--8---6----6----9-------------------------------------------------------
|--6---4----6----9-------------------------------------------------------
|-----------4----7-------------------------------------------------------



A prayer without faith, a ?????? the store

|------------------------------------------------------------------------
|------------------------------------------------------------------------
|------------------------------------------------------------------------
|------------------------------------------------------------------------
|------------------------------------------------------------------------
|------------------------------------------------------------------------



A bad word..... Sex without girl... yeaaaaaah

|--------------------------------------------------9---------------------
|-8--6--4--6---------------------------------------9---------------------
|-8--6--4--6--5------------------------------------7---------------------
|-8--6--4--6--4------6------------------8--------------------------------
|-6--4--2--4--4------6------------------8--------------------------------
|-------------2------4------------------6--------------------------------



Incomplete incomplete ....
pickslide
|------------------------------------------------------9-----------------
|-8---------8------------------------------------------9-----------------
|-8---------8------------------------------------------7-----------------
|-8--4-6-4--8--4-6-4-----------------------------------------------------
|-6--4-6-4--6--4-6-4-------------------------------------x\x-------------
|----2-4-2-----2-4-2-------------------------------------x\x-------------



play this chord under solo

|------------------------------------------------------------------------
|-8--6--------8--6--------8--6--4--6-------------------------------------
|-8--6--5--6--8--6--5--6--8--6--4--6--3---5------------------------------
|-8--6--6--9--8--6--6--9--8--6--4--6--4---6--8---------------------------
|-6--4--6--9--6--4--6--9--6--4--2--4--4---6--8---------------------------
|-------4--7--------4--7--------------2---4--6---------------------------





|------------------9-----------------------------------------------------
|-----8------------9-----------------------------------------------------
|-5---8---5--------7-----------------------------------------------------
|-6---8---6---8----------------------------------------------------------
|-6---6---6---8----------------------------------------------------------
|-4-------4---6----------------------------------------------------------



Incomplete incomplete. . .

|------------------------------------------------------------------------
|------------------------------------------------------------------------
|------------------------------------------------------------------------
|------------------------------------------------------------------------
|------------------------------------------------------------------------
|------------------------------------------------------------------------



--PART.BOUNDARY.902.15135.nyongwa.montreal.qc.ca.782595965.1--

OptimusPrime

Submitted by OptimusPrime at Mon 12 Nov, 2001 9:20 pm

Author: ?
Composer: ?
Publisher: ?
Language: English

Reactions

CommonCrawl [Bot]

Follow Muzikum