Korn
K Falling (Guitar tab)

Falling Away From Me
by Korn
from Issues
7 string 24 fret guitar, dropped A tuning (d a F C G D A)

Intro (Heads verse with low volume and finger picking)

Verse

|----16-15-------15-----------16-15-------15-------|H
|-18-------16--------------18-------16-------15----|e
|-------------17-----------------------17----------|a
|--------------------------------------------------|d
|--------------------------------------------------|
|--------------------------------------------------|
|--------------------------------------------------|

|--------------------------------------------------|M
|-------------------11~~~~------------------11~~~~-|u
|--------------------------------------------------|n
|--------------------------------------------------|k
|--------------------------------------------------|y
|--------------------------------------------------|
|--------------------------------------------------|

*** the ~ signifies how many times munky pushes down on
*** his tremelo bridge.

Bridge

|----------------------|B
|----------------------|o
|----------------------|t
|-15-----------15------|h
|-14-----------14------|
|-13-----------13------|
|-----0--0-00-----0--0-|

Chorus

|--------------------------------------------------------|H
|--------------------------------------------------------|e
|--------------------------------------------------------|a
|-------------4---------------------------------5--------|d
|-2-----------4---------------5-----------------5--------|
|-2-----------2---------------5-----------------3--------|
|-0-----------2---------------3--------------------------|

|-0----0-0-0------0-0-0-0--0-----0--0--0--0--0-----0---0-|M
|-5----5-5-5------5-5-5-5--5-----5--5--5--5--5-----5---5-|u
|-3----3-3-3------5-5-5-5--5-----5--5--3--3--3-----3---5-|n
|------^-^-^---------------------------^--^--^---------^-|k
|--------------------------------------------------------|y
|--------------------------------------------------------|
|--------------------------------------------------------|

*** ^ signifies notes that are bent. When doing this, between the
*** certain notes, do not release the bend.

Nick Di Claudio
Talent Scout of
Fresh Tabs
http://www.freshtabs.com
freshtabsscout@email.com
-----------------------------------------------

Copyrights
Author: ?
Composer: ?
Publisher: ?
More details
Language: English

Reactions

CommonCrawl [Bot]

Follow Muzikum