Korn
K #% (Guitar tab)

Song:K*#%
Band:Korn
Tabbed by:Joel Napolitano (clint_lowery@hotmail.com)
Tuning.7 String(ADGCFAD) 6 String(ADGFAD)
Key: N/H= Natural Harmonics
/ \= slide up or down
P.M= Palm Mute

Intro: Munky uses and slightly dirty tone for the start and he also so uses lots of treble and less bass

D]-----------------------
A]-----------------------
F]-----------------------
C]-----------------------
G]11\10----9-88-11\10-88-
D]10\9-----8-77--10\9-77-
A]------0-------0--------

Head and Munky together: With hard distortion.(Mesa/Boogie Tripple Rectifier)

G]5\3-3-22--2-3\22
D]5\3-3-22--2-3\22
A]3\1-1-00--0-1\00

Verse: Munky plays this peice with normal distortion but Head has some really wiered effect. I uses a wha wha to get a similar effect try it if you have one.

N/H N/H N/H
D]--------19-----------19-------
A]--17--------------------------
F]------------------------------
C]------------------------------
G]------------------------------
D]------------------------------
A]------------0-0-0----------0-0
P.M . . .

This is the most simplest riff in the song and both Munky and Head play it.

G]5/6-6/7-7/8-8/9-9/10
D]5/6-6/7-7/8-8/9-9/10
A]3/4-4/5-5/6-6/7-7/8

In the outro just play RIFF 1 with distortion and it's done

If you have any queries about Korn, what equipment they uses, how to play their songs, or write some more tabs just e-mail me at clint_lowery@hotamil.com
Peace and Korn RULE

Copyrights
Author: ?
Composer: ?
Publisher: ?
More details
Language: English

Reactions

CommonCrawl [Bot]

Follow Muzikum