Korn
01 Blind (Bass tab)

Album - KoRn
Transcripted By: "D" the astranged bassist
Email - dmountain@hotmail.com

Start In after 10 guitar riffs

G|---------------------------------|
D|---------------------------------|
A|---------------------------------|
E|-0-2-0-3--------0-2-0-3-------|

G|-------------------------------------------------| x6
D|-------------------------------------------------|
A|-------------------------------------------------|
E|-0-2-0-3-6666-0-2-0-3-6666-0-2-0-3-6666-|

G|----------------------------------------------------------------------------------------------| x6
D|----------------------------------------------------------------------------------------------|
A|----------------------------------------------------------------------------------------------|
E|--5--5-5-5-5-5-6--6-6-6-6-6-5--5-5-5-5-5-6--6-6-6-6-6-5--5-5-5-5-5-6--6-6-6-6-6-|

G|-----------------------------------------------------------------| x1
D|-----------------------------------------------------------------|
A|-----------------------------------------------------------------|
E|-0-2-0-3-6666-0-2-0-3-6666-0-2-0-3-6666-0-2-0-3-6666-|

G|----------------| x3
D|-7---7--7---7-|
A|---5------5----|
E|----------------|

G|----------------------------------------------------------------| x5
D|----------------------------------------------------------------|
A|----------------------------------------------------------------|
E|--5--5-5-5-5-5-6--6-6-6-6-6-5--5-5-5-5-5-6--6-6-6-6-6-|

G|---------------------------------| x4
D|---------------------------------|
A|---------------------------------|
E|-0-2-0-3-6666-0-2-0-3-6666-|

G|---------------------------------------------------------| x5 and Fading
D|-0------8----------5------0-0------8----------5------0|
A|-0---6-----6---7------7--0-0---6-----6---7------7--0|
E|---------------------------------------------------------|

Well thats the end of 1 of KoRn's best songs and my fist transcript , im 95% sure it's correct please rate
this tab!
Thanks for making this Transcript go to my 4 string Ibanez and myself "D the astranged bassist"!
Special thanks to KoRn for the TAB!

Copyrights
Author: ?
Composer: ?
Publisher: ?
More details
Language: English

Reactions

CommonCrawl [Bot]

Follow Muzikum