Böhse Onkelz

Böhse Onkelz
Erinnerungen (Guitar tab)

Titel: Erinnerungen
Artist: Onkelz
Tabbed by: Jan [BorisB.ecker@gmx.de]

Intro + Verse part 1
e|--------0-----0----------------0-----0---------------0-----0---------------0-----0-------|
B|-----------0-----0----------------0-----0---------------0-----0---------------0-----0----|
G|-----------------------------------------------------------------------------------------|
D|-----6--------------6-------6--------------6------4--------------4------4--------------4-|
A|--4----------------------4---------------------2---------------------2-------------------|
E|-----------------------------------------------------------------------------------------|

Verse part 2
e|--------0-----0---------------0-----0---------------0-----0---------------0-----0-------|
B|-----------2-----2---------------0-----0---------------0-----0---------------0-----0----|
G|----------------------------------------------------------------------------------------|
D|-----2--------------2------4--------------4------6--------------6------6--------------6-|
A|--0---------------------2---------------------4---------------------4-------------------|
E|----------------------------------------------------------------------------------------|

Chorus
e|----------------------------------------------------------------------------------------|
B|----------------------------------------------------------------------------------------|
G|----------------------------------------------------------------------------------------|
D|---2--2--2--2---5--5--5--5---7--7--7--7---10--10--10--10--------------------------------|
A|---2--2--2--2---5--5--5--5---7--7--7--7---10--10--10--10--------------------------------|
E|---0--0--0--0---3--3--3--3---5--5--5--5---8---8---8---8---------------------------------|

e|-----------------------------------------------------------------------------------------|
B|-----------------------------------------------------------------------------------------|
G|-----------------------------------------------------------------------------------------|
D|--2--2--2--2---5--5--5--5---7--7--7--7---7--9--10----------------------------------------|
A|--2--2--2--2---5--5--5--5---7--7--7--7---7--9--10----------------------------------------|
E|--0--0--0--0---3--3--3--3---5--5--5--5---5--7--8-----------------------------------------|

Rhytmus m�sst ihr selbst raush�ren, is nicht schwer! Genauso siehts mit den beiden Soli aus!

OptimusPrime

Submitted by OptimusPrime at Sun 01 Dec, 2002 8:32 am

Author: ?
Composer: ?
Publisher: ?

Reactions

CommonCrawl [Bot]

Follow Muzikum