Jewel
Pieces Of You (Guitar tab)

#
#

Date: Mon, 22 Jan 1996 21:34:05 -0600
From: meniscus@wwa.com (Isaac Csandl)
Subject: TAB: "Pieces of You" by Jewel


"Pieces of You" by Jewel Kilcher
from the album "Pieces of You"
Transcribed by Reverend Isaac Csandl, ULC

PICKING PATTERNS

Dm | Transition | G | Transition |
| | | |
-----1----1----|-----1---1^0----|----------3--------|------------|
-------3----3--|-------3-----3--|-------------3-----|---3--0-----|
---2-----------|---2------------|-------0--------0--|------------|
-0-------------|-0--------------|-------------------|------------|
---------------|----------------|----2--------------|------------|
---------------|----------------|--3----------------|------------|

Am | C |
| |
--------0---------|----------0----------|
-----------2------|-------------1-------|
-----3--------3---|-------2--------2----|
---3--------------|-----0---------------|
-0----------------|---3-----------------|
------------------|---------------------|

Dm G
She's an ugly girl, does .....

Dm G
She's an ugly girl, do you want ...

Dm G
She's an ugly girl, she ....

Dm G
She's an ugly girl, does that ...

CHORUS:
Am C G C
Ugly girl, ugly girl, do you hate her ....

---------------------------------------------------------------------------
Isaac Csandl http://miso.wwa.com/~meniscus/
--Office Hours 11am-7pm CST--
===========================================================================
"I have this theory that if we're told we're bad /
Then that's the only idea we'll ever have /
But maybe if we are surrounded in beauty /
Someday we will become what we see"
--Jewel Kilcher
===========================================================================


Date: 17th Feb 1997 11.00p.m. Singapore Time :)
Transcribed by Brendan Gan

Pieces Of You
=============
by Jewel, taken off the album Pieces Of You

This song is pretty simple - The chords are played over and over again throughout
the whole song. So here it goes.

Dm
e--------1-0-1-----
B-----3---------3--
G------------------ Play this riff 4 times, but on the 3rd, play the 5th
D--0--------------- string(A) instead of the 4th(D).
A------------------
E------------------
G
e---------3--------
B-------3---3------
G-----0-------0---- From the Dm, go to the G riff and play it twice, then back
D------------------ to the Dm riff.
A------------------
E--3---------------

Play the two riffs above during the verses. During the chorus, play the riff below

Am C
e-------0-------------0--------------0-------------0---------------------
B-----1---1---1-----1---1---1------1---1---1-----1---1---1---------------
G---2-------2-----2-------2------0-------0-----0-------0-----------------
D------------------------------------------------------------------------
A-0-------------0--------------3-------------3---------------------------
E------------------------------------------------------------------------
G C
e-------3--------------3--------------0--------------0-------------------
B-----3---3---3------3---3---3------1---1---1------0---1---1-------------
G---0-------0------0-------0------0-------0------0-------0---------------
D------------------------------------------------------------------------
A-------------------------------3--------------3-------------------------
E-3--------------3-------------------------------------------------------

After the chorus, plsy these chords before going into the next verse: G Dm G
But at the G chord, play with the last string open and do the usual plucking
pattern.





#

From: "Sam Hollis"
Date: Fri, 10 Oct 1997 11:14:04 +0100
Subject: Pieces Of you by Jewel

Date sent: Sun, 5 Oct 1997 06:03:21 +0100


Pieces Of You
By Jewel



E---------1--0--1--------------1--0--1--------------1--0--1-----------
B------------------3--------------------3--------------------3--------
G------2--------------------2--------------------2--------------------
D---0--------------------0--------------------0-----------------------
A---------------------------------------------------------------------
E---------------------------------------------------------------------
Dm


E---------1--0--1-----------------3--------------------3--------------
B------------------3-----------3-----3--------------3-----3-----------
G------2--------------------0-----------0--------0-----------0--------
D---0-----------------------------------------------------------------
A---------------------------------------------------------------------
E------------------------3--------------------3-----------------------
G


E---------1--0--1--------------1--0--1--------------1--0--1-----------
B------------------3--------------------3--------------------3--------
G------2--------------------2--------------------2--------------------
D---0--------------------0--------------------0-----------------------
A---------------------------------------------------------------------
E---------------------------------------------------------------------

Dm (keep same arpegios going with words)


E---------1--0--1--------------1--0--1--------------------------------
B------------------3--------------------3-----------------------------
G------2--------------------2-----------------------------------------
D---0--------------------0--------------------------------------------
A---------------------------------------------------------------------
E---------------------------------------------------------------------
She's an ....
G Dm
Does it make you want ....
G Dm
She's an ugly girl do you ....
G Dm
She's an ugly girl ....
G
She's an ugly girl does ...

E------------0-----------------------0-----------------------0--------
B---------------------------------------------------------------------
G---------2-----2-----------------2-----2-----------------0-----0-----
D------2-----------2-----------2-----------2-----------2--------------
A---0-----------------0-----2-----------------2-----3-----------------
E---------------------------------------------------------------------
ugly girl ....


E---------------------0-----------------------3-----------------------
B------------------------------------------3-----3--------------------
G------------------0-----0--------------0-----------0-----------0-----
D---2-----------2-----------2--------------------------0--------------
A------3-----3-----------------3--------------------------------------
E------------------------------------3-----------------------3--------
Do you hate ...


E------3-----------------------0-----------------------0--------------
B---3-----3-----------------------------------------------------------
G------------0--------------0-----0-----------------0-----0-----------
D---------------0--------2-----------2-----------2-----------2--------
A---------------------3-----------------3-----3-----------------3-----
E---------------------------------------------------------------------
she's pieces ...


E------------------3-----------------------3--------------------------
B---------------3-----3-----------------3-----3-----------------------
G------------0-----------0-----------0-----------0--------------------
D---------------------------0-----------------------0-----------------
A---------------------------------------------------------------------
E---------3-----------------------3-----------------------------------

Copyrights
Author: ?
Composer: ?
Publisher: ?
More details
Language: English

Reactions

CommonCrawl [Bot]

Follow Muzikum