Jewel
Yes You Can (Guitar tab)

Hi I�m really bored so I thought id tab out the intro for �Yes you can�, by Jewel.
It�s like really easy so if I�m wrong at all u can easily pick it up. Just listen to the song.

Artist: Jewel
Song: Yes you can
Album: 0304
Tuning: Standard


e---------------------------------------------------|
B---------------------------------------------------|
D--------------3-----2---0--0-----0--2--0-----------|
A-----------0-----0------------3-----------3--------|
E--0--3--0------------------------------------------|

e---------------------------------------------------|
B---------------------------------------------------|
G---------------------------------------------------|
D-----3-----2--0--0-----0--2--0---------------------|
A--0-----0-----------3-----------3------------------|
E---------------------------------------------------|

e---------------------------------------------------|
B---------------------------------------------------|
G---------------------------------------------------|
D-----3-----2--0--0-----0--2--0---------------------|
A--0-----0-----------3-----------3------------------|
E---------------------------------------------------|

e---------------------------------------------------|
B---------------------------------------------------|
G---------------------------------------------------|
D-----3-----2--0--0---------------------------------|
A--0-----0------------------------------------------|
E---------------------------------------------------|


By Liam lad

Copyrights
Author: ?
Composer: ?
Publisher: ?
More details
Language: English

Reactions

CommonCrawl [Bot]

Follow Muzikum