Jewel
Who Will Save Your Soul (acoustic) (Guitar tab)

Hey, this is a tab of the live version of ‘Who will save your soul’ on jewel’s album ‘spirit’. So it’s a little different to the normal radio version. It sounds good though and Jewel plays it with some variation with strumming and stuff, I’ve tabbed it pretty straight.

Listen to this live version, (track 14 on the spirit album) to get the idea. It’s pretty repetitive once u get the hang of it.

Intro
Am C G D
E |----------------|--------------|------3-----3-3---|-----2--3--2--|
B |---1-1-0-1-1-1--|---1-1--3-1-1-|-0--3-3---0---3-3-|-----3--------|
G |-----2-----2----|-----0------0-|------0-------0---|---2-2--------|
D |-----2-----2----|-----2------2-|------0-------0---|-0------------|
A |-0---0-----0----|-3---3------3-|------2-----------|--------------|
E |----------------|--------------|---3--3-----------|--------------|

Verse 1
‘People living their lives…….’

Am C G D
E |----------------|--------------|------3-----3-3---|-----2--3--2--|
B |---1-1-0-1-1-1--|---1-1--3-1-1-|-0--3-3---0---3-3-|-----3--------|
G |-----2-----2----|-----0------0-|------0-------0---|---2-2--------|
D |-----2-----2----|-----2------2-|------0-------0---|-0------------|
A |-0---0-----0----|-3---3------3-|------2-----------|--------------|
E |----------------|--------------|---3--3-----------|--------------|

Chorus
‘Who will save…..’
Am C G D
E |----------------|--------------|------3-----3-3---|-----2--3--2--|
B |---1-1-0-1-1-1--|---1-1--3-1-1-|-0--3-3---0---3-3-|-----3--------|
G |-----2-----2----|-----0------0-|------0-------0---|---2-2--------|
D |-----2-----2----|-----2------2-|------0-------0---|-0------------|
A |-0---0-----0----|-3---3------3-|------2-----------|--------------|
E |----------------|--------------|---3--3-----------|--------------|

Verse 2
Chorus
Verse 3
Chorus

Copyrights
Author: ?
Composer: ?
Publisher: ?
More details
Language: English

Reactions

CommonCrawl [Bot]

Follow Muzikum