Jewel
Who Will Save Your Souls (Bass tab)

TABBER: DAVE
ARTIST: JEWEL
SONG: WHO WILL SAVE YOUR SOULS

G-----------------------------------------
D-----------------------------------------
A---------3-3-3-3----------5-5-5-5--------
E-5-5-5-5------------3-3-3-3--------------

THAT�S PRETTY MUCH THE WHOLE THING EXCEPT FOR THE �SOLO� THINGY WHICH GOES
LIKE THIS�

G------------------------------------------------------
D------------------------------------------------------
A-5-7-------5-7---------5-7-------5-7------------------
E-----0-0-0-----0-0-0-0-----0-0-0-----0-0-0-0----------

Copyrights
Author: ?
Composer: ?
Publisher: ?
More details
Language: English

Reactions

CommonCrawl [Bot]

Follow Muzikum