Jewel
Foolish Games Ver 3 (Guitar tab)

Author/Artist: Jewel
Title: Foolish Games
Album: Pieces of You
Transcribed by: Robert Karlsson
Email: bobbe7@hotmail.com

---------0---1---|-3---1---0---1---|-----------------|-----------------|------
-----3-----------|-----------------|-------------6---|-8---6-------6---|------
---2---2---2---2-|---2---2---2---2-|-----7---9-------|---------9-------|------
-0---------------|-----------------|-----------------|---------------3-|---3--
-----------------|-----------------|---8---8---8---8-|---8---8---8-----|------
-----------------|-----------------|-6---------------|-----------------|-1----


-----1---3---|-5---3---1-------|---------0---1---|-3---1---0---1---|----------
-1-----------|-------------1---|-----1-----------|-----------------|----------
-------------|-----------------|---0---0---0---0-|---0---0---0---0-|----------
---3---3---3-|---3---3---3---3-|-----------------|-----------------|----------
-------------|-----------------|-3---------------|-----------------|----------
-------------|-----------------|-----------------|-----------------|----------

Copyrights
Author: ?
Composer: ?
Publisher: ?
More details
Language: English

Reactions

CommonCrawl [Bot]

Follow Muzikum