Jewel
Break Me (Guitar tab)

Date: Fri, 21 Jun 2002 23:40:51 -0700 (PDT)
From: Justine
Subject: j/jewel/break_me.tab

Artist: Jewel
Song: Break Me
Album: This Way
Transcribed by: J Rosete

*The song is played with capo on the first fret*


First verse:

G6 G6/F G/B C(9)
I will meet you in .... p....

G6 G6/F G/B C(9)
Where the light lends itself to soft ......

G6 G6/F G/B C(9)
I will let you un-dress ..

G6 G6/F G/B C(9)
But I warn you, I have t..... like any ....

G6: xx5030
G6/F: xx4030
G/B: x2003x
C(9): x32030


2nd verse tab:

e|-------------0-----------------------0-------|
B|-------------------3-----------------------3-|
G|-------0-----------------------0-------------|
D|-5-----------------------4-------------------|
A|---------------------------------------------|
E|---------------------------------------------|

e|-------------0-------------------------------|
B|-------------------3-----------------3-------|
G|-------0-----------------------0-------------|
D|-------------------------------------------0-|
A|-2-----------------------3-------------------|
E|---------------------------------------------|

Copyrights
Author: ?
Composer: ?
Publisher: ?
More details
Language: English

Reactions

CommonCrawl [Bot]

Follow Muzikum