Jewel
Morning Song (Guitar tab)

Morning Song

tune guitar up a half step {F,C,Ab,Eb,Bb,F}
or capo at 1st fret.

Intro

G
E ------3---------|0-----3---------|
B ----------3-----|----------3-----|
G ----0-----------|----0-------0---|
D ----0-----------|----0-------0-0-|
A ----------------|----------------|
E 3---------------|3---------------|

C (add 9)
E ------3---------|0-----3---------|
B ----------3-----|----------3-----|
G ----0-------0---|----0-------0---|
D ----2-------2-2-|----2-------2-2-|
A 3---------------|3---------------|
E ----------------|----------------|

Verse

G
E ------3---------|------3---------|
B ----------3-----|----------3-----|
G ----0-------0---|----0-------0---|
D ----0-------0-0-|----0-------0-0-|
A ----------------|----------------|
E 3---------------|3---------------|

C (add 9)
E ------3---------|------3---------|
B ----------3-----|----------3-----|
G ----0-------0---|----0-------0---|
D ----2-------2-2-|----2-------2-2-|
A 3---------------|3---------------|
E ----------------|----------------|

G
E ------3---------|------3---------|
B ----------3-----|----------3-----|
G ----0-------0---|----0-------0---|
D ----0-------0-0-|----0-------0-0-|
A ----------------|----------------|
E 3---------------|3---------------|

Dsus2 D
E ------0--------*{0h2}--2---------|
B ----3-----3-----|----3-----3-----|
G --2---------2---|--2---------2---|
D 0---------------|0---------------|
A ----------------|----------------|
E ----------------|----------------|

* the 0h2 is played by the keyboard, but sounds appropriate.

repeat last four patterns

C
E ------0---------|------0---------|
B ----------1-----|----------1-----|
G ----0-------0---|----0-------0---|
D ----2-------2---|----2-------2---|
A 3---------------|3-----*(3)------|
E ------*(3)------|----------------|

* played by bass. Cool to play, but tough rhythmically.

Dsus2 D
E ------0-------0-|------2---------|
B ----------3-----|----------3-----|
G 2---2-----------|2---2-------2---|
D 0---0-----------|0---0-------0---|
A ----------------|----------------|
E ----------------|----------------|

C
E ------0---------|------0---------|
B ----------1-----|----------1-----|
G ----0-------0---|----0-------0---|
D ----2-------2---|----2-------2---|
A 3---------------|3-----*(3)------|
E ------*(3)------|----------------|

G Dsus4 D
E ------3---------|------3-------2-|
B ----------3-----|----3-----3-----|
G ----0-----------|----2-------2---|
D ----0-----*(025)|0---------------|
A --------*(2)----|----------------|
E 3-----*(35)-----|----------------|

* a 2nd guitar, or maybe bass part. Triplet rhythm - I don't know
how to write those. Nearly impossible to play, G chord rhythms
above work just as well.

Dsus4 D Dsus4 D
E ------3-------2-|------3-------2-|
B --3-------3-----|--3-------3-----|
G ----2-------2---|----2-------2---|
D ----------------|----------------|
A ----------------|----------------|
E ----------------|----------------|

Dsus4 D
E ------3-------2-|----------------|
B --3-------3-----|--3-----3-------|
G ----2-------2---|----2-----2-----|
D ----------------|------0-----4-0-|
A ----------------|----------------|
E ----------------|----------------|

Chorus

G
E ------3---------|------3---------|
B ----------3-----|--0-------3-----|
G ----0-------0---|----0-------0---|
D ----0-------0-0-|----0-------0-0-|
A ----------------|----------------|
E 3---------------|3---------------|

Bm
E ------2---------|--------2-------|
B ----------3---3-|----------3---3-|
G ----4-------4---|----4-------4---|
D ----4-------4---|----4-------4---|
A 2---------------|2---------------|
E ----------------|----------------|

repeat last 2 patterns

Dsus2
E ------0---------|------0---------|
B ----3-----3---3-|----3-----3---3-|
G ----2-------2---|----2-------2---|
D 0---------------|0---------------|
A ----------------|----------------|
E ----------------|----------------|

Cm
E ------3---------|------3---------|
B ----------4-----|----------4-----|
G 5---5-------5---|5---5-------5---|
D 5---5-------5---|5---5-------5---|
A 3---3-----------|3---3-------3---|
E ----------------|----------------|

G
E ------3---------|------3---------|
B ----------3-----|----------3-----|
G --0---------0-0-|----0-------0-0-|
D --0---------0---|----0-------0---|
A ----2-----------|----------------|
E 3---------------|3---------------|

D Dsus4 D
E ------2-------3-|------2---------|
B ----3-----3-----|--3-------3---3-|
G --2---------2---|----2-------2---|
D 0---------------|----------------|
A ----------------|----------------|
E ----------------|----------------|

C
E 0---------------|----------------|
B 1---------------|----------------|
G 0---------------|----------------|
D 2---------------|----------------|
A 3---------------|----------------|
E ----------------|----------------|

repeat from beginning

intro

G
E ------3---------|------3---------|
B ----------3-----|----------3-----|
G ----0-------0---|----0-------0---|
D ----0-------0-0-|----0-------0-0-|
A ----------------|----------------|
E 3---------------|3---------------|

Cadd9 G/B Am7 *G
E 3-------3---3---|(3)-----3-------|
B 3-------3---1---|(3)-----3-------|
G 0-------0---0---|(0)-----0-------|
D 2-------0---2---|(0)-----0-------|
A 3-------2---0---|(2)-----2-------|
E ----------------|(3)-----3-------|
slow down

* piano plays on beat 1. guitar strums on beat 3.

Copyrights
Author: ?
Composer: ?
Publisher: ?
More details
Language: English

Reactions

CommonCrawl [Bot]

Follow Muzikum