Jewel
Little Sister (Guitar tab)

Date: Fri, 26 Dec 1997 01:12:03 -0500
From: David Hempy
Subject: TAB: j/jewel/little_sister.tab UPDATED


Little Sister By Jewel
From the "pieces of you" album
Atlantic Records

Original poster:
Date: Fri, 5 Dec 1997 11:11:20 +0000
From: Sam Hollis


I've taken Sam's interpretation and made some minor changes
that made it easier for me to learn to sing and play Little Sister.
I've added measures to the tab and broken the lyrics into measures.
Everything else is the same. Oh, yeah... I changed 2p0 to 3p2 in
the D chords...play it like you like! Thank you Sam!
-dave



The whole song is the chords D D C G picked over and over:

Intro:
D
D
E-|-----------2--------0h2--------3p2-----------|--------------
B-|-----3--------3----------3----------3-----3--|-----3--------
G-|--------2--------2----------2----------2-----|--------2-----
D-|--0------------------------------------------|--0-----------
A-|---------------------------------------------|--------------
E-|---------------------------------------------|--------------

C
E---2--------0h2--------3p2-----------|------------------------
B------3----------3----------3-----3--|-----------0------------
G---------2----------2----------2-----|-----0--------0---------
D-------------------------------------|--------2--------2------
A-------------------------------------|--3---------------------
E-------------------------------------|------------------------

G
E---0-----------------|-----------3--------3--------3----------
B------------0--------|--------------3--------3--------3-------
G------0--------0-----|-----0-----------0--------0--------0----
D---------2--------2--|--------0-------------------------------
A---------------------|----------------------------------------
E---------------------|--3-------------------------------------

Continue picking throughout rest of tune. Jewel doesn't keep her
lyrics lined up nicely with the measures (bless her soul!) so
some of the breaks below might not be quite perfect. Have fun!

D: Hey little sister I ...
D: So and So, knock, ...
C: his door again last ...
G: needed it bad- you ...
D: 'Cause so many times ...
D: me cry crying ...
C: hurts so bad but ...
G: go back ...

D: My little sister is a ...
D: soul a role she has ...
C: world today where nothing ...
G: but it matters, we gotta ...
D: souls Not our addictions ...
D: avoid the same ...
C: ask ourselves to ...
G: We gotta start ...

D: souls have been lost to ...
D: who feed on addictions ...
C: wish I could save her from ...
G: all the co...
D: of a nation that ....
D: but clothing is the ...
C: God and he ...
G: all we kn....

[Instrumental Verse]

D: Every day we starve ...
D: bread and beer ...
C: hug we spill the ...
G: under the ...
D: My little sister is a ...
D: no soul a role she has ...
C: world today where ...
G: but it matters we ....

D: sooouuuls...
D:
C:
G:

D: Hey little sister i ...
D: So and So's knock, ...
C: door again last ...
G: needed ...

Sam Hollis -ELA96SMH@Sheffield.ac.uk
David Hempy -hempy@ket.org

Copyrights
Author: ?
Composer: ?
Publisher: ?
More details
Language: English

Reactions

CommonCrawl [Bot]

Follow Muzikum