Jewel
Dont (Guitar tab)

Date: Mon, 28 Feb 2000 03:40:39 -0800 (PST)
From: Christopher Kurtz
Subject: j/jewel/dont.tab

I hope this file turns out readable - it's wider than my e-mail program is
used to dealing with.

Chords are given at the end of the file. Song is written in 3/4; timing
is indicated by v's above the staves. A very simple but beautiful song.


-----------------
Jewel / Don't
-----------------

CHORD PROGRESSIONS

PATTERN 1

G G G G G/F# G/E
D Dsus2 D Dsus4 D Dsus2
C Cmaj7 C Cadd9 C Cmaj7

PATTERN 2

G G G G G/F# G/E
D Dsus2 D Dsus4 D Dsus2
G G G G


TAB

These two patterns make up the entire song. Once during the intro and at
the end of each verse, pattern 1 leads to pattern 2. For brevity I have
omitted the complete blocking, which simply consists of repetitions of the
patterns listed below.


PATTERN 1

G G G/F# G/E
v v v v v v v v v v v v v v v v v v v v v v v v
e|-------------3----|------------3-----|------------3-----|------------------|
B|----------3-----3-|---------3-----3--|---------3-----3--|------------------|
G|------0-----------|------0-----------|------0-----------|------------------|
D|------------------|------------------|------------------|------------------|
A|------------------|2-----------------|------------------|------------------|
E|3-----------------|------------------|3-----------------|3-----2-----0-----|

D Dsus2 Dsus2 D Dsus4 D Dsus2
v v v v v v v v v v v v v v v v v v v v v v v v
e|2-----------2-----|0-----------0-----|0-h2--------2-----|3-----2-----0-----|
B|3--------3--------|3--------3--------|3--------3--------|3-----3-----3-----|
G|2-----2--------2--|2-----2--------2--|2-----2--------2--|------------------|
D|0-----------------|0-----------------|0-----------------|------------------|
A|------------------|------------------|------------------|------------------|
E|------------------|------------------|------------------|------------------|

C Cmaj7 C Cadd9 C Cmaj7
v v v v v v v v v v v v v v v v v v v v v v v v
e|0-----------0-----|0-----------0-----|0-----------0-----|------------------|
B|1--------1--------|0--------0--------|0-h1-----1--------|3-----1-----0-----|
G|0-----0--------0--|0-----0--------0--|0-----0--------0--|0-----0-----0-----|
D|------------------|------------------|------------------|------------------|
A|3-----------------|3-----------------|3-----------------|------------------|
E|------------------|------------------|------------------|------------------|


PATTERN 2

G G G/F# G/E
v v v v v v v v v v v v v v v v v v v v v v v v
e|-------------3----|------------3-----|------------3-----|------------------|
B|----------3-----3-|---------3-----3--|---------3-----3--|------------------|
G|------0-----------|------0-----------|------0-----------|------------------|
D|------------------|------------------|------------------|------------------|
A|------------------|2-----------------|------------------|------------------|
E|3-----------------|------------------|3-----------------|3-----2-----0-----|

D Dsus2 Dsus2 D Dsus4 D Dsus2
v v v v v v v v v v v v v v v v v v v v v v v v
e|2-----------2-----|0-----------0-----|0-h2--------2-----|3-----2-----0-----|
B|3--------3--------|3--------3--------|3--------3--------|3-----3-----3-----|
G|2-----2--------2--|2-----2--------2--|2-----2--------2--|------------------|
D|0-----------------|0-----------------|0-----------------|------------------|
A|------------------|------------------|------------------|------------------|
E|------------------|------------------|------------------|------------------|

G
v v v v v v v v v v v v v v v v v v v v v v v v
e|-------------3----|------------3-----|------------3-----|------------3-----|
B|----------3-----3-|---------3-----3--|---------3-----3--|---------3-----3--|
G|------0-----------|------0-----------|------0-----------|------0-----------|
D|------------------|------------------|------------------|------------------|
A|------------------|2-----------------|------------------|2-----------------|
E|3-----------------|------------------|3-----------------|------------------|






CHORDS


G G/F# G/E D Dsus2 Dsus4 C Cmaj7 Cadd9
e|---3---|---3---|---3---|---2---|---0---|---3---|---0---|---0---|---0---|
B|---3---|---3---|---3---|---3---|---3---|---3---|---1---|---0---|---3---|
G|---0---|---0---|---0---|---2---|---2---|---2---|---0---|---0---|---0---|
D|---0---|---0---|---0---|---0---|---0---|---0---|---2---|---2---|---2---|
A|---2---|---2---|---2---|-------|-------|-------|---3---|---3---|---3---|
E|---3---|---2---|---0---|-------|-------|-------|-------|-------|---0---|



Feel free to send questions, comments, corrections. Otherwise, enjoy.


Christopher Kurtz
kurtz@its.caltech.edu

Copyrights
Author: ?
Composer: ?
Publisher: ?
More details
Language: English

Reactions

CommonCrawl [Bot]

Follow Muzikum