Faith Hill

Faith Hill
Breathe (Guitar tab)

Title: Breathe
Artist: Faith Hill
Album: Breathe

Tabbed by: Bob Miller (onefinebob@aol.com)
Special thanks to: Sam Walker (samwalker_2000@yahoo.com)
He tabbed the basic patter for the intro and
wrote down some of the chords
Greg Richards (iceman_greg@yahoo.com)
I compared some notes with his chord version


Intro: (thanks Sam!)
e|----------------|----------------|----------------|----------------|
B|------1---------|------3---------|------3---------|------3---------|
G|----------0---0-|----------0---0-|----------0---0-|----------0---0-|
D|----2-------2---|----0-------0---|----2-------2---|----0-------0---|
A|0---------------|2---------------|3---------------|2---------------|
E|----------------|----------------|----------------|----------------|

e|----------------|----------------|----------------|0---------------|
B|------1---------|------3---------|------3---------|3---------------|
G|----------0---0-|----------0---0-|----------0-----|0---------------|
D|----2-------2---|----0-------0---|----2-------2---|2---------------|
A|-0--------------|2---------------|3---------------|3---------------|
E|----------------|----------------|----------------|----------------|

VERSE 1: (here we go...)
I can feel the magic floating in the air......
e|----------------|----------------|----------------|----------------|
B|------1---------|------3---------|------3---------|------3---------|
G|----------0---0-|----------0---0-|----------0---0-|----------0---0-|
D|----2-------2---|----0-------0---|----2-------2---|----0-------0---|
A|0---------------|2---------------|3---------------|2---------------|
E|----------------|----------------|----------------|----------------|

Being with you gets me that way......
e|----------------|----------------|----------------|0---------------|
B|------1---------|------3---------|------3---------|----------0-----|
G|----------0---0-|--------------0-|----------0-----|------0-------0-|
D|----2-------2---|----0-------0---|----2-------2---|----2-------2---|
A|-0--------------|2---------------|3---------------|3-------3-------|
E|----------------|----------------|----------------|----------------|

I watch the sun-light dance a cross your face and I've....
e|----------------|----------------|----------------|----------------|
B|------1---------|------3---------|------3---------|------3---------|
G|----------0---0-|----------0---0-|----------0---0-|----------0---0-|
D|----2-------2---|----0-------0---|----2-------2---|----0-------0---|
A|0---------------|2---------------|3---------------|2---------------|
E|----------------|----------------|----------------|----------------|

never been this swept away.....
e|----------------|0---------------|------------0---|0h2-------------|
B|------1---------|----------1-----|------3---------|--------3-------|
G|----------0-----|------0-------0-|----2-----------|------------2---|
D|----2-------2---|----2-------2---|0---------0-----|0---0-----------|
A|0---------------|0-------0-------|----------------|----------------|
E|----------------|----------------|----------------|----------------|


Am7 G/B C G/B
All my thoughts just seem to settle on the breeze

Am7 G/B C Cadd9 C
When I'm lying wrapped up in your arms

Am7 G/B C G/B
The whole world just fades away the only thing

Am7 Cadd9 D7
I hear is the beating of your heart

CHORUS:
(D7) G Am7
And I can feel you breathe, washing over me

C D7
And suddenly I'm melting into you

G Am7 C D7
There's nothing left to prove, baby all we need is just to be

G Am7
Caught up in a touch, a slow and steady rush

C G/B Am7 (2 measures)
Baby isn't that the way that love's supposed to be

*1 (

OptimusPrime

Submitted by OptimusPrime at Sun 01 Dec, 2002 9:47 am

Author: ?
Composer: ?
Publisher: ?
Language: English

Reactions

1 post

CommonCrawl [Bot]
C_am
Wed 23 Jul, 2003 10:39 am
I'm just confused, when I listen to the song and look at these tabs, it doesn't match up in the beggining (there are too many eighth notes..)
1 post • Page 1 of 1

Follow Muzikum