Gorillaz
M1 A (Guitar tab)

Gorillaz
M1 A1

Intro
*You'll have to figure out the time on the chord changes yourself
e|-------------------------
B|-------------------------
G|-2-------2---2-----------
D|-2-------2---2-----------
A|-0-3-7-3-0-3-0-----------
E|---1-5-1---1-------------

Riff: played through out the song strum harder on every 3rd strum
e|-------------------
B|-------------------
G|-22-2--22-2--22-2--
D|-22-2--22-2--22-2--
A|-00-0--00-0--00-0--
E|-------------------

Solo: Repeat 5x
e|5-5-5-5-7-7-7-7-8-8-8-8-10-10-10-10-12-12-12-12-13-13-13-13-15-15-15-15-b^17---
B|-------------------------------------------------------------------------------
G|-------------------------------------------------------------------------------
D|-------------------------------------------------------------------------------
A|-------------------------------------------------------------------------------
E|-------------------------------------------------------------------------------

Outro: let last note ring
e|-55-55-55-55-55-5--
B|-------------------
G|-------------------
D|-------------------
A|-------------------
E|-------------------

Copyrights
Author: ?
Composer: ?
Publisher: ?
More details
Language: English

Reactions

CommonCrawl [Bot]

Follow Muzikum