Gorillaz
M1a (Guitar tab)

Author/Artist: Gorillaz
Title: M1A1
Album: Gorillaz
Transcribed by: joe Glute
Email: joe_glute@yahoo.com

This is my very first tab. I'm pretty sure it's correct.
It's fairly easy to play.

------------------------------------------------------------------------------
------------------------------------------------------------------------------
------------------------------------------------------------------------------
-7-7-7-7-7--2--3-3-3-3\7------------------------------------------------------
-7-7-7-7-7--2--3-3-3-3\7------------------------------------------------------
-5-5-5-5-5--0--1-1-1-1\5------------------------------------------------------
This is repeated throughout intro. play each chord repeatedly except the second one. Play that one once. After repeating this 3X, the first chord is repeated for a long time, then the intro rif starts again

-5--5--5----------------------------------------------------------------------
-5--5--5----------------------------------------------------------------------
-6--6--6----------------------------------------------------------------------
-7--7--7----------------------------------------------------------------------
-7--7--7----------------------------------------------------------------------
-5--5--5----------------------------------------------------------------------
this chord is played through the rest of the song and that's it. Simple, eh?

Copyrights
Author: ?
Composer: ?
Publisher: ?
More details
Language: English

Reactions

CommonCrawl [Bot]

Follow Muzikum