The Ataris

The Ataris
I (Guitar tab)

------------------------------------------------------------------------------
I.O.U. One Galaxy - The Ataris guitar 1
-------------------------------------------------------------------------------
I love this song thats the reason that I tabed it.
This is my first tab, I think its perfect but if u find any mistake just write me to j_a_r_p@hotmail.
I made 2 archives, guitar 1 and guitar 2, because i like to have the tabs with the lyrics on it, its easier for the person who
Is reading it. And Im from Ecuador.

By: JARP

/ - slide
~ - let ring out
h - hammer on

Em
e|-----------0--|
B|---------0----|
G|-------0------|
D|-----2--------|
A|---2----------|
E|-0------------|

Intro: Guitar 1 (2x)
e|---------------------------------------------------------------------------|
B|---------------------------------------------------------------------------|
G|7-7-7-7-7-3-3-3-3-3-----------5-5-5-5-5------------------------------------|
D|7-7-7-7-7-3-3-3-3-3-3-3-3-3-3-5-5-5-5-5------------------------------------|
A|5-5-5-5-5-1-1-1-1-1-3-3-3-3-3-3-3-3-3-3------------------------------------|
E|--------------------1-1-1-1-1----------------------------------------------|

Verse: Guitar 1
e|---------------------------------------------------------------------------|
B|---------------------------------------------------------------------------|
G|7~-------------------------9-10-12-10~-------------------------------------|
D|7~-------------------------x--x--x--x--------------------------------------|
A|5~-------------------------7--8-10--8~-------------------------------------|
E|---------------------------------------------------------------------------|
The stars are out tonight, and you're the brightest one shining in my

Verse Cont'd: Guitar 1
e|---------------------------------------------------------------------------|
B|---------------------------------------------------------------------------|
G|---5-5-5-5-5-5-5-5---------7----------3--------------------5-------7-------|
D|---5-5-5-5-5-5-5-5---------7----------3-----------3--------5-------7-------|
A|---3-3-3-3-3-3-3-3---------5----------1-----------3--------3-------5-------|
E|--------------------------------------------------1------------------------|
sky, It's like every wish I ever made came true, the day I woke

Verse Cont'd: Guitar 1
e|---------------------------------------------------------------------------|
B|---------------------------------------------------------------------------|
G|-----3---------------5-----------------------------------------------------|
D|-----3------------3--5-----------------------------------------------------|
A|-----1------------3--3-----------------------------------------------------|
E|------------------1--------------------------------------------------------|
up lying next to you.

Chorus: Guitar 1
e|---------------------------------------------------------------------------|
B|---------------------------------------------------------------------------|
G|3-3-3--3-3-3-3-3-----------------5-5-5-5-5-5-5-5-3-3-3--3-3-3-3-3----------|
D|3-3-3--3-3-3-3-3-3-3-3-3-3-3-3-3-5-5-5-5-5-5-5-5-3-3-3--3-3-3-3-3-3-3-3-3-3|
A|1-1-1--1-1-1-1-1-3-3-3-3-3-3-3-3-3-3-3-3-3-3-3-3-1-1-1--1-1-1-1-1-3-3-3-3-3|
E|-----------------1-1-1-1-1-1-1-1----------------------------------1-1-1-1-1|
Will u be my best friend if I offer u my heart? cuz is allready yours

Chorus Cont'd: Guitar 1
e|---------------------------------------------------------------------------|
B|---------------------------------------------------------------------------|
G|------5-5-5-5-5-5-5-5--7-7-7-7-7-5-5-5-5-5-------------3-3-3-3-3-7-7-7-7-7-|
D|3-3-3-5-5-5-5-5-5-5-5--7-7-7-7-7-5-5-5-5-5-3-3-3-3-3-3-3-3-3-3-3-7-7-7-7-7-|
A|3-3-3-3-3-3-3-3-3-3-3--5-5-5-5-5-3-3-3-3-3-3-3-3-3-3-3-1-1-1-1-1-5-5-5-5-5-|
E|1-1-1--------------------------------------1-1-1-1-1-1---------------------|
We could hang out every night and watch the sun gows down as long as

Chorus Cont'd: Guitar 1
e|---------------------------------------------------------------------------|
B|---------------------------------------------------------------------------|
G|-------5-5-5-5-5-3-3-3--3-3-3-3-3------------------------------------------|
D|-------5-5-5-5-5-3-3-3--3-3-3-3-3------------------------------------------|
A|-------3-3-3-3-3-1-1-1--1-1-1-1-1------------------------------------------|
E|---------------------------------------------------------------------------|
we could watch it rise again


Verse2: Guitar 1
e|---------------------------------------------------------------------------|
B|---------------------------------------------------------------------------|
G|7~----------------------9-10-12-10~----------------------------------------|
D|7~----------------------x--x--x--x-----------------------------------------|
A|5~----------------------7--8-10--8~----------------------------------------|
E|---------------------------------------------------------------------------|
Gave me a valentine is these little thing that stand the test of time

Verse Cont'd: Guitar 1
e|---------------------------------------------------------------------------|
B|---------------------------------------------------------------------------|
G|---5-5-5-5-5-5-5-5---------7-------------3---------------------------------|
D|---5-5-5-5-5-5-5-5---------7-------------3--------------3------------------|
A|---3-3-3-3-3-3-3-3---------5-------------1--------------3------------------|
E|--------------------------------------------------------1------------------|
I�ve saved the tikets from the shows that we�ve been to

Verse Cont'd: Guitar 1
e|---------------------------------------------------------------------------|
B|---------------------------------------------------------------------------|
G|5----------7-----------3---------------5-----------------------------------|
D|5----------7-----------3------------3--5-----------------------------------|
A|3----------5-----------1------------3--3-----------------------------------|
E|------------------------------------1--------------------------------------|
And a thousand other memories of you

Chorus: Guitar 1
e|---------------------------------------------------------------------------|
B|---------------------------------------------------------------------------|
G|3-3-3--3-3-3-3-3-----------------5-5-5-5-5-5-5-5-3-3-3--3-3-3-3-3----------|
D|3-3-3--3-3-3-3-3-3-3-3-3-3-3-3-3-5-5-5-5-5-5-5-5-3-3-3--3-3-3-3-3-3-3-3-3-3|
A|1-1-1--1-1-1-1-1-3-3-3-3-3-3-3-3-3-3-3-3-3-3-3-3-1-1-1--1-1-1-1-1-3-3-3-3-3|
E|-----------------1-1-1-1-1-1-1-1----------------------------------1-1-1-1-1|
Will u be my best friend if I offer u my heart? cuz is allready yours

Chorus Cont'd: Guitar 1
e|---------------------------------------------------------------------------|
B|---------------------------------------------------------------------------|
G|------5-5-5-5-5-5-5-5--7-7-7-7-7-5-5-5-5-5-------------3-3-3-3-3-7-7-7-7-7-|
D|3-3-3-5-5-5-5-5-5-5-5--7-7-7-7-7-5-5-5-5-5-3-3-3-3-3-3-3-3-3-3-3-7-7-7-7-7-|
A|3-3-3-3-3-3-3-3-3-3-3--5-5-5-5-5-3-3-3-3-3-3-3-3-3-3-3-1-1-1-1-1-5-5-5-5-5-|
E|1-1-1--------------------------------------1-1-1-1-1-1---------------------|

Chorus Cont'd: Guitar 1
e|---------------------------------------------------------------------------|
B|---------------------------------------------------------------------------|
G|5-5-5-5-5-3-3-3--3-3-3-3-3-------------------------------------------------|
D|5-5-5-5-5-3-3-3--3-3-3-3-3-------------------------------------------------|
A|3-3-3-3-3-1-1-1--1-1-1-1-1-------------------------------------------------|
E|---------------------------------------------------------------------------|

Breakdown: Guitar 1
e|---------------------------------------------------------------------------|
B|---------------------------------------------------------------------------|
G|5~--------------------3-2-------5~--------------------------3-2---2h3-2~---|
D|5~------------------------3-----5~------------------------------3----------|
A|3~------------------------------3~-----------------------------------------|
E|---------------------------------------------------------------------------|
Gave this I.O.U. touuday It said good for one galaxyy


e|-----------------------------------------------------------------------|
B|-----------------------------------------------------------------------|
G|5~-----------------------3-2-------5~-----------------------3~---------|
D|5~---------------------------3-----5~-----------------------3~---------|
A|3~---------------------------------3~-----------------------1~---------|
E|-----------------------------------------------------------------------|
Once I my rocket to thee sky we�ll fly away just u and me...

OptimusPrime

Submitted by OptimusPrime at Thu 14 Aug, 2003 3:59 pm

Author: ?
Composer: ?
Publisher: ?
Language: English

Reactions

CommonCrawl [Bot]

Follow Muzikum