The Ataris
I (Guitar tab)

-------------------------------------------------------------------------------
Ataris – I.O.U one Galaxy (guitar 1)
-------------------------------------------------------------------------------

Opening
e|-----------0---------------------------------------------------------------|
B|---------0-----------------------------------------------------------------|
G|-------0-------------------------------------------------------------------|
D|-----2---------------------------------------------------------------------|
A|---2-----------------------------------------------------------------------|
E|-0-------------------------------------------------------------------------|

Intro x 2
e|---------------------------------------------------------------------------|
B|---------------------------------------------------------------------------|
G|-7-7-7-7-7-3-3-3-3-3-----------5-5-5-5-5-----------------------------------|
D|-7-7-7-7-7-3-3-3-3-3-3-3-3-3-3-5-5-5-5-5-----------------------------------|
A|-5-5-5-5-5-1-1-1-1-1-3-3-3-3-3-3-3-3-3-3-----------------------------------|
E|---------------------1-1-1-1-1---------------------------------------------|

Pre Verse x 1
e|---------------------------------------------------------------------------|
B|---------------------------------------------------------------------------|
G|-7~-------------------------9-10-12-10~-----------------------5-5-5-5-5-5--|
D|-7~-----------------------------------------------------------5-5-5-5-5-5--|
A|-5~-------------------------7--8-10--8~-----------------------3-3-3-3-3-3--|
E|---------------------------------------------------------------------------|

Verse x 2
e|---------------------------------------------------------------------------|
B|---------------------------------------------------------------------------|
G|-7-7-7-7-7-3-3-3-3-3-----------5-5-5-5-5-----------------------------------|
D|-7-7-7-7-7-3-3-3-3-3-3-3-3-3-3-5-5-5-5-5-----------------------------------|
A|-5-5-5-5-5-1-1-1-1-1-3-3-3-3-3-3-3-3-3-3-----------------------------------|
E|---------------------1-1-1-1-1---------------------------------------------|

Chorus x 1
e|---------------------------------------------------------------------------|
B|---------------------------------------------------------------------------|
G|-3-3-x-3-3-x-3-3-----------5-5-5-5--3-3-x-3-3-3-3-----------5-5-5-5--------|
D|-3-3-x-3-3-x-3-3--3-3-3-3--5-5-5-5--3-3-x-3-3-3-3--3-3-3-3--5-5-5-5--------|
A|-1-1-x-1-1-x-1-1--3-3-3-3--3-3-3-3--1-1-x-1-1-1-1--3-3-3-3--3-3-3-3--------|
E|------------------1-1-1-1--------------------------1-1-1-1-----------------|

e|---------------------------------------------------------------------------|
B|---------------------------------------------------------------------------|
G|-7--7--7--5--5--5--------------3-3-3-3--7-7-7-7--5-5-5-5--3-3-x-3-3-x-3-3--|
D|-7--7--7--5--5--5--3-3-3-3-3-3-3-3-3-3--7-7-7-7--5-5-5-5--3-3-x-3-3-x-3-3--|
A|-5--5--5--3--3--3--3-3-3-3-3-3-1-1-1-1--5-5-5-5--3-3-3-3--1-1-x-1-1-x-1-1--|
E|-------------------1-1-1-1-1-1---------------------------------------------|

Verse x 4

Chorus x 1

-------------------------------------------------------------------------------
Ataris – I.O.U one Galaxy (guitar 2)
-------------------------------------------------------------------------------

Intro
e|---------------------------------------------------------------------------|
B|---------------------------------------------------------------------------|
G|------------------10-9-10-12/14-12-9-10-10-10-10-10-10-10-10-10-9-9-9-9-10~|
D|---------------------------------------------------------------------------|
A|-------------------8-7--8-10/12-10-7--8--8--8--8--8--8--8--8--8-7-7-7-7--8~|
E|---------------------------------------------------------------------------|

Pre Verse
e|---------------------------------------------------------------------------|
B|---------------------------------------------------------------------------|
G|-10~----------------------9-10-12-10~-------------------------9-9-9-9-9-9--|
D|---------------------------------------------------------------------------|
A|--8~----------------------7--8-10--8~-------------------------7-7-7-7-7-7--|
E|---------------------------------------------------------------------------|

Verse
e|---------------------------------------------------------------------------|
B|---------------------------------------------------------------------------|
G|-10-10-9-10-12-12-10-9-10-10-9-7-5-7-9-10-10-9-10-12-12-10-9---------------|
D|---------------------------------------------------------------------------|
A|--8--8-7--8-10-10--8-7--8--8-7-5-3-5-7--8--8-7--8-10-10--8-7---------------|
E|---------------------------------------------------------------------------|

e|---------------------------------------------------------------------------|
B|---------------------------------------------------------------------------|
G|-14-14-14-14-15-15-15-15-12-12-12-12-12-12---------------------------------|
D|---------------------------------------------------------------------------|
A|-12-12-12-12-13-13-13-13-10-10-10-10-10-10---------------------------------|
E|---------------------------------------------------------------------------|

Chorus
e|---------------------------------------------------------------------------|
B|---------------------------------------------------------------------------|
G|10-9-10-9-10-9-10-9--10-9-10-9-10-9-10-9-14-14-14-14--12-12-12-12----------|
D|---------------------------------------------------------------------------|
A|-----------------------------------------12-12-12-12--10-10-10-10----------|
E|---------------------------------------------------------------------------|

e|---------------------------------------------------------------------------|
B|---------------------------------------------------------------------------|
G|-10-10-10-10--14-14-14-14-15-15-17-17-17-17-17-17-17-17--7-7-7-7-7---------|
D|---------------------------------------------------------7-7-7-7-7---------|
A|--8--8--8--8--12-12-12-12-13-13-15-15-15-15-15-15-15-15--5-5-5-5-5---------|
E|---------------------------------------------------------------------------|

e|---------------------------------------------------------------------------|
B|---------------------------------------------------------------------------|
G|-5-5-5-5-5-----------3-3-3-3-3--14-14-14-14--12-12-12-12-3-3-x-3-3-x-3-3---|
D|-5-5-5-5-5-3-3-3-3-3-3-3-3-3-3---------------------------3-3-x-3-3-x-3-3---|
A|-3-3-3-3-3-3-3-3-3-3-1-1-1-1-1--12-12-12-12--10-10-10-10-1-1-x-1-1-x-1-1---|
E|-----------1-1-1-1-1-------------------------------------------------------|

Verse 2 (starts a little into the verse)
e|---------------------------------------------------------------------------|
B|---------------------------------------------------------------------------|
G|---9-10-12-10-10-10-10-10-10-10-10-10-10-10-10-10-10-10-10-9-9-9-9-9-9-9-9-|
D|---------------------------------------------------------------------------|
A|---7--8-10--8--8--8--8--8--8--8--8--8--8--8--8--8--8--8--8-7-7-7-7-7-7-7-7-|
E|---------------------------------------------------------------------------|

e|---------------------------------------------------------------------------|
B|---------------------------------------------------------------------------|
G|----14-14-12-9-10-10-10-10-10-10-10-10-10-10-10-10-10-10-10-10-12-12-12-12-|
D|---------------------------------------------------------------------------|
A|----12-12-10-7--8--8--8--8--8--8--8--8--8--8--8--8--8--8--8--8-10-10-10-10-|
E|---------------------------------------------------------------------------|

Chorus 2
e|---------------------------------------------------------------------------|
B|---------------------------------------------------------------------------|
G|10-9-10-9-10-9-10-9--10-9-10-9-10-9-10-9-14-14-14-14--12-12-12-12----------|
D|---------------------------------------------------------------------------|
A|-----------------------------------------12-12-12-12--10-10-10-10----------|
E|---------------------------------------------------------------------------|

e|---------------------------------------------------------------------------|
B|---------------------------------------------------------------------------|
G|-10-10-10-10--14-14-14-14-15-15-17-17-17-17-17-17-17-17--------------------|
D|---------------------------------------------------------------------------|
A|--8--8--8--8--12-12-12-12-13-13-15-15-15-15-15-15-15-15--------------------|
E|---------------------------------------------------------------------------|

e|---------------------------------------------------------------------------|
B|---------------------------------------------------------------------------|
G|-10-10-10-10-12-12-12-12--14-15-14-15-14-15-14-12-14-14-14-14--12-12-12-12-|
D|---------------------------------------------------------------------------|
A|--8--8--8--8-10-10-10-10--12-13-12-13-12-13-12-10-12-12-12-12--10-10-10-10-|
E|---------------------------------------------------------------------------|

e|---------------------------------------------------------------------------|
B|---------------------------------------------------------------------------|
G|-10-10-x-10-10-x-10-10-----------------------------------------------------|
D|---------------------------------------------------------------------------|
A|--8--8-x--8--8-x--8--8-----------------------------------------------------|
E|---------------------------------------------------------------------------|

Finish
e|------------------------|--------------------------------------------------|
B|------------------------|--------------------------------------------------|
G|5~--3-2----5~---3-2-----|-10-9-10-9-10-9-10---- x a lot -------------------|
D|5~------3--5~-------3---|--------------------------------------------------|
A|3~---------3~-----------|--------------------------------------------------|
E|------------------------|--------------------------------------------------|

Copyrights
Author: ?
Composer: ?
Publisher: ?

Reactions

CommonCrawl [Bot]

Follow Muzikum