Eminem

Eminem
Stan Ver 6 (Guitar tab)

song: stan
artist: eminem
tabbed by jeffrey h.(y2jc_28@yahoo.com)
hey, this is the filler in the intro. so Enjoy!
filler/intro(clean)
e--0-0-0-0-1---0-------0-------0-0-0-0-1---0---3-3-5-----
b-----------3-1-3---0-1-0-1-------------3-1-3-------5-3-5
g--------------------------2-----------------------------
d--------------------------------------------------------
a--------------------------------------------------------
e--------------------------------------------------------

e--3-3-3-3-5------------------------------
b-----------5-3--5-1-3---1-3-3s5-5s6-5-3-5
g-----------------------------------------
d-----------------------------------------
a-----------------------------------------
e-----------------------------------------

e-----------------------------------
b---5-3-1--1-3-3s5-1-3---1-5-1-3--1-
g--2-------------------------------2
d-----------------------------------
a-----------------------------------
e-----------------------------------
that's all.

OptimusPrime

Submitted by OptimusPrime at Sun 01 Dec, 2002 9:43 am

Author: ?
Composer: ?
Publisher: ?
Language: English

Reactions

CommonCrawl [Bot]

Follow Muzikum