Eminem

Eminem
Stan Ver 3 (Bass tab)

The Bass TAB and chords to stan
[--------------------------------------------------------]
[--------------------------------------------------------]
[----------7-7--7--9-9--9--------------------------------]
[-4-4---4------------------7-7--6-6----------------------]


[--------------------------------------------------------]
[--------------------------------------------------------]
[---------7-7--7--8--8--7--------------------------------]
[-4-4--4-------------------------------------------------]


And of course the chords
i can't be bothered writing out the lyrics but here is the chords
"PLAY WITH A CAPO ON FRET 4!"


E / C / D / G / D

Just listen to the song and pick up the rythm it's quite easy

Three words for this song

"FAN BLOUDY TASTIC"

OptimusPrime

Submitted by OptimusPrime at Sun 01 Dec, 2002 9:42 am

Author: ?
Composer: ?
Publisher: ?
Language: English

Reactions

CommonCrawl [Bot]

Follow Muzikum