Eminem

Eminem
Marshall Mathers Ver 4 (Guitar tab)

marshall mathers
by eminem
this song sounds wonderful on electric or acoustic

play this main riff throuout the song pause a little between each
E-------------------------------------------------|
B-------------------1-----------0-----------------|
G-------0---------0-----------2-------------0-----|
D-----2---------2-----------1-------------2-------|
A---2---------0-----------2-------------2---------|
E-0-----------------------------------0-----------|



Solo very easy but awesome sounding solo

E-------------------------------------------------|
B-----------7-8---------12--10---10-8-7-8---------|
G--4--4/9~~~----5~~~-----------------------9--~~~-|
D-------------------------------------------------|
A-------------------------------------------------|
E-------------------------------------------------|

E---------------------------------------------------------|
B-----------7-8---------12--10---10-12-13-12--10--8-------|
G--4--4/9~~~----5~~~---------------------------------8--9-|
D---------------------------------------------------------|
A---------------------------------------------------------|
E---------------------------------------------------------|

OptimusPrime

Submitted by OptimusPrime at Sun 01 Dec, 2002 9:42 am

Author: ?
Composer: ?
Publisher: ?
Language: English

Reactions

CommonCrawl [Bot]

Follow Muzikum