Eminem

Eminem
Cum On Everybody (Bass tab)

Cum On Everybody
by Eminem
----------------

Normal tuning

h = hammer fret on
x = cut note off

Verse
A-----------------0h2---------------0h2-4-x--4-x--4-x---
E-3-x--3-x--3-x-------3-x-3-x-3-x-----------------------

A-0h2-4-x-4-x-4-x---
E-------------------

Chorus
D-----------------------------------------0-x-0-x-4-x-4-x-0-x-0-x-
A---------0-x-0-x-4-x-4-x-0-x-0-x-2-x-2-x-------------------------
E-2-x-2-x---------------------------------------------------------

Paul Hagen
hagenp@mindspring.com
www.angelfire.com/al/Hagen

OptimusPrime

Submitted by OptimusPrime at Sun 01 Dec, 2002 9:42 am

Author: ?
Composer: ?
Publisher: ?
Language: English
Available on: Slim Shady - CD 1 (2019)

Reactions

CommonCrawl [Bot]

Follow Muzikum