Eminem

Eminem
Guilty Conscience (Bass tab)

EMINEM
'Guilty Conscience'
from 'The Slim Shady LP'
Keith Winkler's transcription of the song was wrong so I had to send you the
right one

Andreas Vossenkuhl

G=------------------------------------------------------
D=--77-5-77-5-77-5-7-5-3-2-11---11---11---1-3-5-6-77----
A=----------------------------3----3----3---------------
E=------------------------------------------------------
OR
G=------------------------------------------------------
D=------------------------------------------------------
A=------------------------------------------------------
E=--55-3-55-3-55-3-5-3-1-0------------------1-3-4-55----
B=-------------------------44-1-44-1-44-1-4-------------

OptimusPrime

Submitted by OptimusPrime at Sun 01 Dec, 2002 9:42 am

Author: ?
Composer: ?
Publisher: ?
Language: English

Reactions

CommonCrawl [Bot]

Follow Muzikum