Eminem

Eminem
Forgot About Dre (Guitar tab)

forgot about dre

E|--3-5-6--3-5-6-----------------|
B|-3------3----------------------|
G|3------3-----------------------|
D|-------------------------------|
A|-------------------------------|
E|-------------------------------|


The whole thing goes like that.It's very simple, anyone who can't play
this shouldn't be playing guitar. Enjoy!!!

OptimusPrime

Submitted by OptimusPrime at Sun 01 Dec, 2002 9:42 am

Author: ?
Composer: ?
Publisher: ?
Language: English

Reactions

1 post

CommonCrawl [Bot]
Anonymous
Tue 25 Mar, 2003 6:07 pm
---3-5-6----3-5-6
--3--------3
-3--------3
5--------5
1 post • Page 1 of 1

Follow Muzikum