Anthrax
A (Guitar tab)

ANTHRAX - A.D.I/HORROR OF IT ALL
(Among The Living, 1987)

Key
= after note = vibrato
\ = slide down
/ = slide up
+ = tap
h = hammer
p = pull
n = natural harmonic
s = pinching harmonic (squeal)
* = tremolo pick
t = trill
b = bend
|-3-| = triplet

n number above the tab = play the first part then the first finishing part
play the first part a second time and then play the second finishing part
etc.

A.D.I

Riff 1

E ------------------------------------ -----------------------
B -3-3---3-------3--------3---3------- -3-3---3-------3-------
G -1---1-2----01---2-1-0----1---121-0- -1---1-2----01---2-1-0-
D -0-----0-------------0------------0- -0-----0-------------0-
A ------------------------------------ -----------------------
E ------------------------------------ -----------------------

Riff 2

E ---5-------------------------------5---------------------------
B -----6-------3--------------3-3------6-------3-3----------3-3--
G -------5---0--------------2---1--------5---0---2--------1---2--
D -0-------3-----2--3-232-0-----0--0-------2-----3--3-232-----0--
A ---------------------------------------------------------------
E ---------------------------------------------------------------

Riff 3
slow down
E ---5-------------------------------5-----------0- -----------------
B -----6-------3--------------3-3------6-------3-3- -----------3---3-
G -------5---0--------------2---1--------5---0---2- ---------1-----2-
D -0-------3-----2--3-232-0-----0--0-------2-----3- -3-232-0-0-----0-
A ------------------------------------------------- -----------------
E ------------------------------------------------- -----------------

Order

Riff 1 x 2
Riff 2 x 2
Riff 3 x 1

HORROR OF IT ALL

Riff 1

E ---------------------------------
B ---------------------------------
G ---------------------------------
D -7-----7-------------------------
A -5-----5-------------------------
E ---0-0---0-0-0-0-0-0-0-0-0-0-0-0-

Riff 2

E ---------------------------------
B ---------------------------------
G -7-----7-------77-7-6-5---3-4-7-6-
D -7-----7-------77-7-6-5---3-4-7-6-
A -5-----5-------55-5-4-3---1-2-5-4-
E ---0-0---0-0-0----------0---------

Riff 2A

E ------------------------------------------------------------------
B ------------------------------------------------------------------
G -7-----7-------------------------7-----7-------77-7-6-5---3-4-7-6-
D -7-----7-------------------------7-----7-------77-7-6-5---3-4-7-6-
A -5-----5-------------------------5-----5-------55-5-4-3---1-2-5-4-
E ---0-0---0-0-0-0-0-0-0-0-0-0-0-0---0-0---0-0-0----------0---------

Riff 3

E -------------------------------------------------------------------------
B -------------------------------------------------------------------------
G -------------------------------------------------------------------------
D -8/9-2-2-2-2-2-2-8/9-2-2-2-2-2-2-8/9-2-2-8/9-2-2-8/9-2-2-8/9-4-4-4-4-4-4-
A -8/9-2-2-2-2-2-2-8/9-2-2-2-2-2-2-8/9-2-2-8/9-2-2-8/9-2-2-8/9-4-4-4-4-4-4-
E -6/7-0-0-0-0-0-0-6/7-0-0-0-0-0-0-6/7-0-0-6/7-0-0-6/7-0-0-6/7-2-2-2-2-2-2-

Riff 3A

E -----------------------------------------------------------------------
B -----------------------------------------------------------------------
G -----------------------------------------------------------------------
D -8/9-2-2-2-2-2-2-8/9-2-2-2-2-2-2-8/9-2-2-8/9-2-2-8/9-2-2-8/9-2-2-8/9---
A -8/9-2-2-2-2-2-2-8/9-2-2-2-2-2-2-8/9-2-2-8/9-2-2-8/9-2-2-8/9-2-2-8/9---
E -6/7-0-0-0-0-0-0-6/7-0-0-0-0-0-0-6/7-0-0-6/7-0-0-6/7-0-0-6/7-0-0-6/7-0-

Riff 4

E --------------------
B --------------------
G ---------------3-4--
D -5-----------5-3-4--
A -5-----------5-1-2--
E -3-----------3------

Riff 5

E ------------------------
B ------------------------
G ----7---6---5------3-4--
D -5--7---6---5------3-4--
A -5--5---4---3------1-2--
E -3-------------3-3------

Riff 6

E -------------------------------
B -------------------------------
G -------------------------------
D -9-------8-------5-----3--3----
A -9-------8-------5-----3--3----
E -7-0-0-0-6-0-0-0-3-0-0-1--1--0-

Riff 7A

E ----------------------------------------
B ----------------------------------------
G ------------------------------------3---
D -5---4---4---4---4---4--4---4---4---3---
A -5---4---4---4---4---2--4---4---4---1---
E -3---2---2---2---2---0--2---2---2-------

Riff 7

E ----------------------------------------
B ----------------------------------------
G ------------------------------------3---
D -3---4---4---4---4---4--4---4---4---3---
A -3---4---4---4---4---2--4---4---4---1---
E -1---2---2---2---2---0--2---2---2-------

Riff 7B

E --------------------------------------------------------------
B --------------------------------------------------------------
G ----------------------------------------------------------3---
D -3------4-----4-----4-----4-----2-------4-----4-----4-----3---
A -3------4-----4-----4-----4-----2-------4-----4-----4-----1---
E -1--0-0-2-0-0-2-0-0-2-0-0-2-0-0-0-0-0-0-2-0-0-2-0-0-2-0-0-----

Riff 7C

E -----------------------------------------------------------------
B -----------------------------------------------------------------
G ------------------------------------------------------------34---
D -3------4-----4-----4-----4-----2-------4-----4-----4-------34---
A -3------4-----4-----4-----4-----2-------4-----4-----4-------12---
E -1--0-0-2-0-0-2-0-0-2-0-0-2-0-0-0-0-0-0-2-0-0-2-0-0-2-0-0-0----0-

Riff 8A

E --------------------------------
B --------------------------------
G --------------------------------
D -5--------------------------8-8-
A -5--------------------------8-8-
E -3--3-3-3-3-3-3-3-3-3-3-3-3-6-6-

Riff 8

E ---------------------------------------------------------------
B ---------------------------------------------------------------
G ---------------------------------------------------------5-5-5-
D -5------------------------8-8-8-5------------------------5-5-5-
A -5--------8-------7-------8-8-8-5--------8-------7-------3-3-3-
E -3--3-6-3---3-6-3---3-6-3-6-6-6-3--3-6-3---3-6-3---3-6-3-------

Riff 8B

E ---------------------------------------------------------------
B ---------------------------------------------------------------
G ---------------------------------------------------------5-5-5-
D -5------------------------8-8-8-5------------------------5-5-5-
A -5------------------------8-8-8-5------------------------3-3-3-
E -3--3-3-3-3-3-3-3-3-3-3-3-6-6-6-3--3-3-3-3-3-3-3-3-3-3-3-------

Order

Riff 1 x 8
Riff 1\2 x 4
Riff 2 x 8
Riff 3 x 1
Solo over Riff 3 x 2
Solo over Riff 3A x 1
Riff 4 x 4
Riff 5 x 4
Riff 6 x 8
Riff 2A x 2
Riff 5 x 4
Solo over Riff 6 x 4
Riff 6 x 5
Riff 2A x 2
Riff 5 x 4
Riff 7A x 1
Riff 7 x 1
Riff 7B x 1
Riff 7C x 1
Solo over Riff 6 x 4
Riff 6 x 5
Riff 2A x 2
Riff 5 x 4
Riff 7A x 1
Riff 7 x 1
Riff 7B x 1
Riff 7C x 1
Riff 4 x 4
Riff 8A x 1
Riff 8 x 6
Solo over Riff 8B x 2
Solo over Riff 8 x 2
Solo over Riff 8B x 2
Solo over Riff 8 x 2
Riff 4 x 4
Riff 5 x 8
Riff 8 x 4
Riff 6 x 1

Tabbed by Radiohater 2002

Copyrights
Author: ?
Composer: ?
Publisher: ?
More details
Language: English

Reactions

CommonCrawl [Bot]

Follow Muzikum