Anthrax
H8 Red (Guitar tab)

Title: H8 Red
Band: Anthrax

>From "Persistance of Time"

Crank up the distortion, this one rocks:

---------------------------------------------------------------
Legend:
-------
x mute
b bend
r release
h hammer on
p pull off
~ vibrato
/ slide up
\ slide down
^^ tremolo


Intro/Verse 1/Ending (p.m. the 0's)
|---------------------------------------|-----------------------------------
----|
|---------------------------------------|-----------------------------------
----|
|---------------------------------------|-----------------------------------
----|
|---------------------------------------|-----------------------------------
----|
|------------------------------------13-|-----------------------------------
-9--|
|----------------------0----0----0----0-|--------------------0-----0----0---
-0--|




|---------------------------------------|-----------------------------------
----|
|---------------------------------------|-----------------------------------
----|
|---------------------------------------|-----------------------------------
----|
|---------------------------------------|-----------------------------------
----|
|--------------------------------------5|----------5/-7----7-----2----------
----|
|---------------------0----0-----0-----0|------------------------0----------
----|


Main Verse Part repeat--||--this is played at end
|---------------------------------------|-------------------------------3---
----|
|---------------------------------------|-----------------------------------
----|
|---------------------------------------|-------7---------------------------
----|
|----9-------8-------7-------9-------8--|-------7---------------------------
----|
|----9-------8------7--------9-------8--|-------5---------------------------
----|
|----7---x---6--x---5----x---7---x---6--|---x----------3-~---3~----3-~---3~-
----|


"So I say to you..." times 3?

|---------------------------------------|-----------------------------------
----|
|---------------------------------------|-----------------------------------
----|
|---------------------------------------|-----------------------------------
----|
|---------------------------------------|-----------------------------------
----|
|---------------------------------------|-----------------------------------
----|
|----3-1-3-----0-1-2-----0-1-0----0-0-4-|-----------------------------------
----|


The "Do I Hate You..." part
|---------------------------------------|-----------------------------------
----|
|---------------------------------------|-----------------------------------
----|
|---------------------------------------|-----------------------------------
----|
|---------------------------------------|-----------------------------------
----|
|-------------7----5----6~~~------------|-----------------------------------
----|
|-------/-/7----------------------------|-----------------------------------
----|


The "All This Hatred..." part
|---------------------------------------|-----------------------------------
----|
|---------------------------------------|-----------------------------------
----|
|------------4---9---7----8-------------|-----------------------------------
----|
|------------4---9---7---8--------------|-----------------------------------
----|
|------------2---7---5---6--------------|-----------------------------------
----|
|-----0--0-----------------0---0--0---0-|-----------------------------------
----|


"You may not know this..."
|---------------------------------------|-----------------------------------
----|
|---------------------------------------|-----------------------------------
----|
|---9-9-9-----9\-7----------------------|----7--7---7---7\-6----------------
----|
|---9-9-9-----9\-7----------------------|----7--7---7---7\-6----------------
----|
|---7-7-7-----7\-5----------------------|----5--5---5---5\-4----------------
----|
|---------------------------------------|-----------------------------------
----|



|---------------------------------------|-----------------------------------
----|
|---------------------------------------|-----------------------------------
----|
|-----6----6---6-----6\-5---------------|----5---5----5---------------------
----|
|-----6----6---6-----6\-5---------------|----5----5---5------2--------------
----|
|-----4----4---4-----4\-3---------------|----3----3---3------2--------------
----|
|---------------------------------------|--------------------0--------------
----|

play something similar a couple times


Last bar of ending
|---------------------------------------|
|---------------------------------------|
|----------------4--9--7----------------|
|----------------4--9--7----2-----------|
|-----------5----2--7--5----2-----------|
|---0--0-0--0---------------0-----------|


Something like that... email me with comments

Tony Harrington (aharring@vt.edu)

Copyrights
Author: ?
Composer: ?
Publisher: ?
More details
Language: English

Reactions

CommonCrawl [Bot]

Follow Muzikum