American Hi-fi
I'm A Fool Ver 2 (Guitar tab)

Intro
Guitar 1
3x last time
E|----------------------------|
B|----------------------------|
G|-----4-2~~-4----------4-2~~-|
D|-2~~-4-2~~-4------2~~-4-2~~-|
A|-2~~-2-0~~-2------2~~-2-0~~-|
E|-0~~--------------0~~-------|


Guitar 2
E|-14-12-14p12-14-12-14-------14-12-14p12-14-12-14-16-|
B|----------------------14-12-------------------------|
G|----------------------------------------------------|
D|----------------------------------------------------|
A|----------------------------------------------------|
E|----------------------------------------------------|

Verse 1
E|--------------------------------|
B|--------------------------------|
G|-99-999-999-999-777-777---------|
D|-99-999-999-999-777-777-777-777-|
A|-77-777-666-666-555-555-777-777-|
E|------------------------555-555-|

Pre-Chorus
Guitar 1
E|-----------------------------------------------|
B|-----------------------------------------------|
G|-----------------------------------------------|
D|-9999-11111111-77777777-9999-11111111-77777777-|
A|-9999-11111111-77777777-9999-11111111-77777777-|
E|-7777--9-9-9-9-55555555-7777--9-9-9-9-55555555-|
pm------------------------------------ pm-----

Guitar 2
E|---0-----|
B|-----0---|
G|-------1-|
D|---------|
A|-2-------|
E|(0)------|
6x

Chorus
E|---------------------|
B|---------------------|
G|------4444-6666------|
D|-2222-4444-6666-7777-|
A|-2222-2222-4444-7777-|
E|-0000-----------5555-|

pre-verse

Verse 2
E|--------------------------------|
B|-99-999-999-999-777-777---------|
G|-99-999-999-999-777-777-666-666-|
D|-99-999-888-888-777-777-777-777-|
A|-77-777-666-666-555-555-777-777-|
E|------------------------555-555-|

chorus

sorry no solo

chorus again

End with this
Guitar 1
E|-------------|
B|-------------|
G|-666-444-222-|
D|-666-444-222-|
A|-444-222-000-|
E|-------------|

Guitar 2
E|------------------------|
B|-14-14-14-12-12-12------|
G|------------------9-9-9-|
D|------------------------|
A|------------------------|
E|------------------------|

Copyrights
Author: ?
Composer: ?
Publisher: ?

Reactions

CommonCrawl [Bot]

Follow Muzikum