American Hi-fi
Flavor Of The Weak Ver 3 (Bass tab)

Band-American Hi Fi
Song-Flavor of the Weak
Tabber-musicforlife
Eamil-superfreak_021@hotmail.com
Standard Tuning-EADG

*=let note ring

INTRO (wait 2 verses while guitar plays)
-about 0:09-
G--------------------|
D--------------------|
A--------------------| (2x)
E-2-44-44-44-00000000|

VERSE
G----------------------------------------|
D----------------------------------------|
A-11111111-----------------------66666666| (2x)
E----------11111111-33333333-------------|

PRE-CHORUS
(and he’s got….)
G-----------------------------------------------|
D-----------------------------------------------|
A-5-55--1-11-----------------------1-11—66666666|
E----------------1-11--3-33--3-33---------------|
CHORUS
(her boyfriend…..)
G--------------------------------|
D--------------------------------|
A-1-1--------------------66666666| (2x)
E--------1-1----33333333---------|

(she’s just the flavor of the week)
G-----------------------------------|
D-----------------------------------|
A-1-1*****------------------66666666| (1x)
E---------1-1*****-33333333---------|

G------------------|
D------------------|
A-1-1*****---------| (1x)
E----------1-1*****|

INTRO (1x)

VERSE

PRE-CHORUS

CHORUS

BRIDGE
(yeah!)
G----------------------------|
D----------------------------|
A----------------------------| (3x)
E-5-5-6-6-8-8-9-9-9-9-9-9-9-8|

G----------------------------------------|
D----------------------------------------|
A----------------------------------------| (1x)
E-9-9-10-10-12-12-14-14-14-14-14-14-14-14|

GUITAR SOLO
(play the verse 2x)

CHORUS-2nd last pre chorus (light guitar pre-chorus)
(her boyfriend, he don’t know)
G-----------------|
D-----------------|
A-1***************|
E-----------------|

(he’s too stoned, he’s too stoned)
G---------------------------|
D---------------------------|
A-1-1---------------66666666| (1x)
E-------1-1---3-3-----------|

(her boyfriend….)
G------------------------------------|
D------------------------------------|
A-11111111-------------------66666666|
E----------11111111-33333333---------|

Then play the2nd part of the chorus regular
(part with the note rings)- (2x)

ENDING
(and she makes me weep)
G----------------------------------|
D----------------------------------|
A1-1*****------------------1*******| (1x)
E -------1-1*****-33333333---------|

comments and questions-email me at superfreak_021@hotmail.com

Copyrights
Author: ?
Composer: ?
Publisher: ?
More details
Language: English

Reactions

CommonCrawl [Bot]

Follow Muzikum