American Hi-fi
I Am A Fool Solo (Guitar tab)

Band: American Hi Fi
Song: I'm A Fool (solo)
Transcribed by: Dan Caruthers
E-mail: New Yardbirds@aol.com


I have the whole song tabbed out on paper; but since the tab for
"I'm A Fool" was pretty acurately tabbed out already, I decided to
just tab out the solo, since it was the only part missing from
the first "Im A Fool" tab.

This song is in standard tuning. EADGBE

When I have a number in parenthesis, it means to bend the note for it
up to that number fret.

When I have 2 "b"s, it means to bend up to the note in parenthesis
and then bend back to the original note. For example, if I have
11bb(13), it means bend the 11 up to the 13 and then bend back to 11.

e---------9-9-9-9---------------------------------------------------
b-12b(14)---------12b(14)----9----9----9----9-9----12---------------
g------------------------------11--------11-----------11bb(13)-9-11-
d-------------------------------------------------------------------
a-------------------------------------------------------------------
e-------------------------------------------------------------------

Right where this line is
the guitarist just makes a
mess of notes. It's only for
about 3 seconds, so just ignore it
e------------------|----12-----------------------------------
b------------------|-------12----------------------12--------
g--11bb(13)-9---9--|----------11bb(13)--9--11b(13)-----9-----
d-------------9----|-----------------------------------------
a------------------|-----------------------------------------
e------------------|-----------------------------------------


e---------------------------9--12--9------------------------
b---------------12------12-----------12bb(14)---9--12--9----
g--11-9-11b(13)-----9---------------------------------------
d-----------------------------------------------------------
a-----------------------------------------------------------
e-----------------------------------------------------------

Copyrights
Author: ?
Composer: ?
Publisher: ?
More details
Language: English

Reactions

CommonCrawl [Bot]

Follow Muzikum