Eric Clapton
Let It Rain (Bass tab)

h s s e e e w h s s e e e
G---||--r--14--14--14----------|------|--r--14--14--14----------|-------
D---||--e--------------14--14--|------|--e--------------14--14--|-------
A---||--s----------------------|--12--|--s----------------------|-------
E---||--t----------------------|------|--t----------------------|-------


w h s s e e e w H e e Q e e e
G-------|--r--14--14--14----------|------|--r--------|------------------
D-------|--e--------------14--14--|------|--e--------|------------------
A---12--|--s----------------------|--12--|--s--0--2--|--5--0--5--5------
E-------|--t----------------------|------|--t--------|------------------


e e Q e e e e e q e e e e e e q q e e
G---------|--------------------|-----------------------|----------------
D---------|--------2-----------|-----------------------|----------------
A---3--2--|--0--0-----0--2--3--|--3--2--0-----2--3--5--|--5--5--5-------
E---------|--------------------|-----------3-----------|-----------2----


e e q e e e e e e Q e e e e e q e e e
G---------|-----------------------|--------------------|----------------
D---------|-----------------------|--------2-----------|----------------
A---0--2--|--5--5--0--5--3--2--0--|--0--0--------0--2--|--3--2--0-------
E---------|-----------------------|-----------3--------|-----------3----


e e e q q e e e e q e q e e e q e Q e
G------------|--------------------|--------------------|----------------
D------------|--------------------|-----7--------7-----|-----7----------
A---2--3--5--|--5--5--5-----0--2--|--5-----0--0-----0--|--5-----0--0----
E------------|-----------2--------|--------------------|----------------


e q e e e e e e q q e e e e q e q e e
G------|-----------------------|--------------------|-------------------
D------|-----------------------|--------------------|-----7--------7----
A---2--|--3--2--0-----2--3--5--|--5--5--5-----0--2--|--5-----0--0-------
E------|-----------3-----------|-----------2--------|-------------------


e q e q e e e q e e h w h s s e
G------|--------------------|--------------|-----||--r--14--14--14------
D------|-----7--------------|--------------|-----||--e------------------
A---0--|--5-----0--0--2--0--|--3--2--0-----|--0--||--s------------------
E------|--------------------|-----------3--|-----||--t------------------


e e w h s s e e e w h s s e
G-----------|------|--r--14--14--14----------|------|--r--14--14--14----
D---14--14--|------|--e--------------14--14--|------|--e----------------
A-----------|--12--|--s----------------------|--12--|--s----------------
E-----------|------|--t----------------------|------|--t----------------


e e w H e e e e Q e e E s e Q e
G-----------|------|--r--r--14----------|--------------------|----------
D---14--14--|------|--e--e------14--11--|--------------------|----------
A-----------|--12--|--s--s--------------|--9-----9--9-----9--|--8-------
E-----------|------|--t--t--------------|-----9--------9-----|-----9----


e E s e Q e e E s e Q e e e e e Q e e
G---------------|--------------------|--------------------|-------------
D---------------|--------------------|--------------------|-------------
A---8--8-----8--|--7-----7--7-----7--|--6--4--------------|--7-----7----
E---------9-----|-----9--------9-----|--------7--5--7--5--|-----7-------


e e e Q e e e e e Q e e e e e Q e e e
G------------|--------------------|--------9--7--------|----------------
D------5--6--|--7-----9--7--------|-----9--------9--8--|--7-----9--7----
A---7--------|-----7--------9--8--|--7-----------------|-----7----------
E------------|--------------------|--------------------|----------------


e e Q e e e e e Q e e e e e Q e e e e
G---------|--------9--7--------|--------------------|--------9--7-------
D---------|-----9--------9--8--|--7-----9--7--------|-----9--------9----
A---9--8--|--7-----------------|-----7--------9--8--|--7----------------
E---------|--------------------|--------------------|-------------------


e Q e e e e e Q e e e e e Q e e e e e
G------|--------------------|--------------------|----------------------
D---8--|--7-----9--7--------|--------------------|--------2-------------
A------|-----7--------9--7--|--5--0--5--5--3--2--|--0--0-----0--2--3----
E------|--------------------|--------------------|----------------------


q e e e e e e q q e e e e q e e e e e
G---|-----------------------|--------------------|----------------------
D---|-----------------------|--------------------|----------------------
A---|--3--2--0-----2--3--5--|--5--5--5-----0--2--|--5--5--0--5--3--2----
E---|-----------3-----------|-----------2--------|----------------------


e Q e e e e e q e e e e e e q q e e e
G------|--------------------|-----------------------|-------------------
D------|--------2-----------|-----------------------|-------------------
A---0--|--0--0--------0--2--|--3--2--0-----2--3--5--|--5--5--5-----0----
E------|-----------3--------|-----------3-----------|-----------2-------


e q e q e e e q e Q e e q e e e e e e
G------|--------------------|-----------------|-------------------------
D------|-----7--------7-----|-----7-----------|-------------------------
A---2--|--5-----0--0-----0--|--5-----0--0--2--|--3--2--0-----2--3--5----
E------|--------------------|-----------------|-----------3-------------


q q e e e e q e q e e e q e q e e e
G---|--------------------|--------------------|--------------------|----
D---|--------------------|-----7--------7-----|-----7--------------|----
A---|--5--5--5-----0--2--|--5-----0--0-----0--|--5-----0--0--2--0--|----
E---|-----------2--------|--------------------|--------------------|----


q e e h w h s s e e e w h s s
G---------------|-----||--r--14--14--14----------|------|--r--14--14----
D---------------|-----||--e--------------14--14--|------|--e------------
A---3--2--0-----|--0--||--s----------------------|--12--|--s------------
E------------3--|-----||--t----------------------|------|--t------------


e e e w h s s e e e w H e e
G---14----------|------|--r--14--14--14----------|------|--r--r---------
D-------14--14--|------|--e--------------14--14--|------|--e--e---------
A---------------|--12--|--s----------------------|--12--|--s--s---------
E---------------|------|--t----------------------|------|--t--t--3------


e e e e e e e e e e e e e e e e e e e
G---------|--------------2--2--------|--------------------------|-------
D------2--|-----------2--------4--2--|--------------5--5--2--0--|-------
A---------|--0--0--4-----------------|--------2--5--------------|-------
E---4-----|--------------------------|--3--3--------------------|--3----


e e s s e e e e e e e s s e e e e e e e
G---------------------------|-----------------2--2--------|-------------
D---------0--2--5--5--2--0--|-----------2--4--------4--2--|-------------
A------2--------------------|--0--0--4--------------------|--0--0--4----
E---3-----------------------|-----------------------------|-------------


s s e e e e e e e s s e e e e e e e s s
G---------2--2--------|-----------------------------|-------------------
D---2--4--------4--2--|-----------0--2--5--5--2--0--|-----------0--2----
A---------------------|--------2--------------------|--------2----------
E---------------------|--3--3-----------------------|--3--3-------------


e e e e e e e e s s e e e e e e e e e e
G---------------|--------------2--2--2--------|--------------2----------
D---5--5--2--0--|-----------2-----------4--2--|-----------2-----4--2----
A---------------|--0--0--4--------------------|--0--0--4----------------
E---------------|-----------------------------|-------------------------


e e e e e e e e e e e e e s s e e e e
G------|--------------------------|-----------------------------|-------
D---0--|-----------2--5--2--------|-----------2--5--5--5--2-----|-------
A------|-----2--5-----------5--2--|-----2--5-----------------5--|--0----
E------|--3-----------------------|--3--------------------------|-------


e e e e e e e w
G------------4--2--------|-----||---------------------------------------
D------2--4--------4--2--|-----||---------------------------------------
A---4--------------------|--0--||---------------------------------------

  • surfbass

    Submitted by

    surfbass at Tue 03 Aug, 2004 9:33 pm

  • <
Copyrights
Author: ?
Composer: ?
Publisher: ?
More details
Available on: Slowhand at 70 (2015)

Reactions

CommonCrawl [Bot]

Follow Muzikum