Eric Clapton

Eric Clapton
Running On Faith Unplugged Solo Ver 2 (Guitar tab)

Running on faith solo from the unplugged album:

E ---------------------------------------------------------------12\10~~----|
B ---\12~~~12-12--15-15~~~15--/8~~--------8/10~--10/12~~--12-12-------------|
G ----------------------------------7--9------------------------------------|
D --------------------------------------------------------------------------|
A --------------------------------------------------------------------------|
E --------------------------------------------------------------------------|


|--10\7~~7-6-5-----------------------------------------------------------|
|---------------------8-------------------------10-----------------------|
|---------------7~7/9---9—7--5~~-5-5/9~--9-9—11----11—9/7~~0—12~~~~------|
|------------------------------------------------------------------------|
|------------------------------------------------------------------------|
|------------------------------------------------------------------------|

OptimusPrime

Submitted by OptimusPrime at Thu 14 Aug, 2003 4:45 pm

Author: ?
Composer: ?
Publisher: ?
Language: English

Reactions

CommonCrawl [Bot]

Follow Muzikum