Eric Clapton

Eric Clapton
Tears In Heaven Ver 4 (Guitar tab)

From:Matthew Khoo(Cloud_Surfer87@usa.net)


solo guitar interpretation, so i added some notes probably where there
aren't any in the real song ... if you don't have a band behind you to
provide texture, you gotta make do :-)

daishi



e|---------|
B|---------|
G|---------|
D|---------|
A|---------|
E|-0--h2---|


* *Aintro* *

e|---------------------------------0---------------0---------------|
B|-----------------2h3p2-----------------------------------2-------|
G|---------2---------------2-------1---------------1-------2-------|
D|-----------------------------------------------------------------|
A|-0---------------------------------------------------------------|
E|---------------------------------4-------4---------------2-------|
1.
2. ven
3. ven
4. ven

e|-----------------------------------------------------------------|
B|-----------------2---------------2---------------2---------------|
G|-----------------2---------------2---------------2---------------|
D|-----------------------------------------------------------------|
A|-----------------------------------------------------------------|
E|---------2---------------2-------0-------0---------------0-------|

e|-----------------------------------------------------------------|
B|-3---------------3---------------3---------------3---------------|
G|-2---------------2---------------2---------------1---------------|
D|-----------------------------------------------------------------|
A|-----------------------------------------------------------------|
E|-2-------2---------------2-------0-------0-------0-------0-------|
(on 3., go to *C* after the above measure, and return to *A* afterwards)

e|-----------------------------------------------------------------|
B|-2---------------2---------------2---------------2---------------|
G|-2---------------2---------------2---------------2---------------|
D|-----------------------------------------------------------------|
A|-0-------0---------------0-------0-------0-----------------------|
E|---------------------------------------------------------0--h2---|


* *A* *

e|---------------------------------0---------------0---------------|
B|-----------------2h3p2-----------------------------------2-------|
G|---------2---------------2-------1---------------1-------2-------|
D|-----------------------------------------------------------------|
A|-0---------------------------------------------------------------|
E|---------------------------------4-------4---------------2-------|
1. would you know my name
2. would you hold my hand
3. (solo instead of vocals)
4. would you know my name

e|-----------------------------------------------------------------|
B|-----------------2---------------2---------------2---------------|
G|-----------------2---------------2---------------2---------------|
D|-----------------------------------------------------------------|
A|-----------------------------------------------------------------|
E|---------2---------------2-------0-------0---------------0-------|

e|-----------------------------------------------------------------|
B|-3---------------3---------------2---------------2---------------|
G|-2---------------2---------------2---------------2---------------|
D|-----------------------------------------------------------------|
A|-----------------------------------------------------------------|
E|-2-------2---------------2-------0-------0---------------0-------|
1. if i saw you in hea-
2. if i saw you in hea-
4. if i saw you in hea-

e|-----------------------------------------------------------------|
B|-0---------------0---------------2---------------3---------------|
G|-1---------------1---------------2---------------4---------------|
D|-----------------------------------------------------------------|
A|-----------------------------------------------------------------|
E|-0-------0---------------0---------------0---------------0-------|
1. ven
2. ven
4. ven

e|---------------------------------0---------------0---------------|
B|-2---------------2h3p2-----------------------------------2-------|
G|-2-----------------------2-------1---------------1-------2-------|
D|-----------------------------------------------------------------|
A|-0-------0-------------------------------------------------------|
E|---------------------------------4-------4---------------2-------|
1. would it be the same
2. would you help me stand
4. would it be the same

e|-----------------------------------------------------------------|
B|-----------------2---------------2---------------2---------------|
G|-----------------2---------------2---------------2---------------|
D|-----------------------------------------------------------------|
A|-----------------------------------------------------------------|
E|---------2---------------2-------0-------0---------------0-------|

e|-----------------------------------------------------------------|
B|-3---------------3---------------2---------------2---------------|
G|-2---------------2---------------2---------------2---------------|
D|-----------------------------------------------------------------|
A|-----------------------------------------------------------------|
E|-2-------2---------------2-------0-------0---------------0-------|
1. if i saw you in hea-
2. if i saw you in hea-
4. if i saw you in hea-

e|-----------------------------------------------------------------|
B|-0---------------0---------------2---------------3---------------|
G|-1---------------1---------------2---------------4---------------|
D|-----------------------------------------------------------------|
A|-----------------------------------------------------------------|
E|-0-------0---------------0---------------0---------------0-------|
1. ven
2. ven
4. ven


* *B* *

e|-----------------2-------------------------------2---------------|
B|---------2---------------2---------------2---------------2-------|
G|-2-------------------------------2-------------------------------|
D|-----------------------------------------------------------------|
A|-----------------------------------------------------------------|
E|-2-------------------------------2-------------------------------|
1. I must be str-
2. I'll find my way
3. be- yond the do-
4. I must be str-

e|-----------------1-------------------------------1---------------|
B|---------2---------------2---------------2---------------2-------|
G|-1-------------------------------1-------------------------------|
D|-----------------------------------------------------------------|
A|-----------------------------------------------------------------|
E|-1-------------------------------1-------------------------------|
1. ong
2.
3. or
4. ong

e|-----------------0-------------------------------0---------------|
B|---------0---------------0---------------0---------------0-------|
G|-0-------------------------------0-------------------------------|
D|-----------------------------------------------------------------|
A|-----------------------------------------------------------------|
E|-0-------------------------------0-------------------------------|
1. and car- ry
2. through night and
3. there's peace I'm
4. and car- ry

e|-----------------2-------------------------------2---------------|
B|---------2---------------2---------------2---------------2-------|
G|-3-------------------------------3-------------------------------|
D|-----------------------------------------------------------------|
A|-----------------------------------------------------------------|
E|-2-------------------------------2-------------------------------|
1. on Cause I know
2. day Cause I know
3. sure And I know
4. on Cause I know

e|-----------------------------------------------------------------|
B|-3---------------3---------------3---------------3---------------|
G|-2---------------2---------------2---------------2---------------|
D|-----------------------------------------------------------------|
A|-----------------------------------------------------------------|
E|-2-------2---------------2-------2-------2---------------2-------|
1. I don't be- lo-
2. I just can't st-
3. there'll be no mo-
4. I don't be- lo-

e|-----------------------------------------------------------------|
B|---------3-------3---------------3-------------------------------|
G|---------2-------2---------------2-------------------------------|
D|-----------------------------------------------------------------|
A|-----------------------------------------------------------------|
E|-0-------------------------------------------------------0--h2---|
1. ng here in hea-
2. ay here in hea-
3. re tears in hea-
4. ng here in hea-
(return to *Aintro* after the above measure, except on 4.,
in which case go to *Coda*)


* *C* *

e|-----------------------------------------------------------------|
B|-2---------------2---------------2---------------2---------------|
G|-2---------------2---------------2---------------2---------------|
D|-----------------------------------------------------------------|
A|-0-------0---------------0-------0-------0---------------0--h2---|
E|-----------------------------------------------------------------|

e|-----------------0-------------------------------0-------0-------|
B|-----------------1-------------------------------0-------1-------|
G|---------0---------------0---------------0---------------2-------|
D|-----------------------------------------------------------------|
A|-3-------------------------------2-----------------------0-------|
E|-----------------------------------------------------------------|
3. Time can bring you down

e|-----------------0---------------2---------------2-------3-------|
B|-----------------1---------------3---------------3-------0-------|
G|-----------------2---------------2---------------2-------0-------|
D|-----------------------------------------------------------------|
A|---------0---------------0---------------------------------------|
E|---------------------------------2-------2---------------3-------|
3. Time can bend your knees

e|-----------------3-----------------------------------------------|
B|-----------------0---------------3---------------3-------0-------|
G|-----------------0---------------2---------------2-------0-------|
D|-----------------------------------------------------------------|
A|-----------------------------------------------------------------|
E|---------3---------------3-------2-------2---------------0-------|

e|-----------------------------------------------------------------|
B|-----------------0---------------3---------------3---------------|
G|-----------------0---------------2---------------0---------------|
D|-----------------------------------------------------------------|
A|-----------------------------------------------------------------|
E|---------0---------------0-------2-------2-------3-------3-------|

e|-----------------0-------------------------------0-------0-------|
B|-----------------1-------------------------------0-------1-------|
G|---------0---------------0---------------0---------------2-------|
D|-----------------------------------------------------------------|
A|-3-------------------------------2-----------------------0-------|
E|-----------------------------------------------------------------|
3. Time can break your heart

e|-----------------0---------------2---------------2-------3-------|
B|-----------------1---------------3---------------3-------0-------|
G|-----------------2---------------2---------------2-------0-------|
D|-----------------------------------------------------------------|
A|---------0---------------0---------------------------------------|
E|---------------------------------2-------2---------------3-------|
3. have you beg- ging please

e|-----------------3---------------------------------------0-------|
B|-----------------0---------------3---------------3-------0-------|
G|-----------------0---------------2---------------2-------1-------|
D|-----------------------------------------------------------------|
A|-----------------------------------------------------------------|
E|---------3---------------3-------2-------2---------------0-------|
3. beg- ging please

e|-----------------------------------------------------------------|
B|-----------------------------------------------------------------|
G|-----------------------------------------------------------------|
D|-----------------------------------------------------------------|
A|-----------------------------------------------------------------|
E|---------------------------------------------------------0--h2---|
(return to *A*, still on 3.)


* *Coda* *
e|---------------------------------0---------------0---------------|
B|-----------------2h3p2-----------------------------------2-------|
G|---------2---------------2-------1---------------1-------2-------|
D|-----------------------------------------------------------------|
A|-0---------------------------------------------------------------|
E|---------------------------------4-------4---------------2-------|

e|-----------------------------------------------------------------|
B|-----------------2---------------2---------------2---------------|
G|-----------------2---------------2---------------2---------------|
D|-----------------------------------------------------------------|
A|-----------------------------------------------------------------|
E|---------2---------------2-------0-------0-----------------------|
4. Cause I

e|-----------------------------------------------------------------|
B|-3---------------3---------------3---------------3---------------|
G|-2---------------2---------------2---------------2---------------|
D|-----------------------------------------------------------------|
A|-----------------------------------------------------------------|
E|-2-------2---------------2-------2-------2---------------2-------|
4. know I don't be- lo-

e|-----------------------------------------------------------------|
B|---------3-------3---------------3-------------------------------|
G|---------2-------2---------------2-------------------------------|
D|-----------------------------------------------------------------|
A|-----------------------------------------------------------------|
E|-0-------------------------------------------------------0--h2---|
4. ng here in hea-

e|---------------------------------0---------------0---------------|
B|-----------------2h3p2-----------------------------------2-------|
G|---------2---------------2-------1---------------1-------2-------|
D|-----------------------------------------------------------------|
A|-0---------------------------------------------------------------|
E|---------------------------------4-------4---------------2-------|
4. ven (rit.)

e|-----------------------------------------------------------------|
B|-----------------2---------------2---------------2---------------|
G|-----------------2---------------2---------------2---------------|
D|-----------------------------------------------------------------|
A|-----------------------------------------------------------------|
E|---------2---------------2-------0-------0-----------------------|

e|-----------------------------------------------------------------|
B|-3---------------3---------------3---------------3---------------|
G|-2---------------2---------------2---------------1---------------|
D|-----------------------------------------------------------------|
A|-----------------------------------------------------------------|
E|-2-------2---------------2-------0-------0-------0-------0-------|

e|-----------------------------------------------------------------|
B|----2------------------------------------------------------------|
G|---2-------------------------------------------------------------|
D|--2--------------------------------------------------------------|
A|-0---------------------------------------------------------------|
E|-----------------------------------------------------------------|

OptimusPrime

Submitted by OptimusPrime at Sun 01 Dec, 2002 9:40 am

Author: ?
Composer: ?
Publisher: ?
Language: English

Reactions

CommonCrawl [Bot]

Follow Muzikum